busca

Goiás É Mais

Bruno e Marrone

Tom: A
Intro: A9 E A9 E A9 E A9
 
E|--5-5-5-4-4-2-2-2-------------------------5-5-5-4-4-2-2-2-------------------------|
B|--7-7-7-5-5-3-3-3-5-5-3-3-3-2-2-----5-3-2-7-7-7-5-5-3-3-3-5-5-3-3-3-2-2-----5-3-2-|
G|------------------6-6-4-4-4-2-2-4-4-6-4-2-----------------6-6-4-4-4-2-2-4-4-6-4-2-|
D|--------------------------------6-6-------------------------------------6-6-------|
A|----------------------------------------------------------------------------------|
E|----------------------------------------------------------------------------------|

E|----------------------------------------------------------------------------------|
B|----------------------------------------------------------------------------------|
G|------------------------------2-2-2-2-2-------------------------------------------|
D|------------------------------2-2-2-2-2-------------------------------------------|
A|--2-0---0-2-0-0-0-2-0---0-2-0-0-0-0-0-0-------------------------------------------|
E|-----4-2-----4-------4-2----------------------------------------------------------|

A            E                      A
DEUS ME DEU A CHANCE DE ANDA PELO MUNDO 
             E                  A
DE VOAR BEM ALTO MERGULHAR BEM FUNDO
          F                    C
JÁ DOMEI LEÃO JÁ BRINQUEI NA NEVE 
          F                  E
CHINA E JAPÃO EU DISSE ATÉ BREVE 

Refrão:
                           A                       
ESSE É MEU PAIS SEM COMPARAÇÃO JÁ TEM O FORMATO DO
  B 
CORAÇÃO                                         
D                                A         
TODO CANTO É LINDO PRA MIM TANTO FAZ QUANDO EU QUERO
E                A 
MAIS EU VOU PRA GOIÁS
     
            E                A                  E
RASGUEI O AMAZONAS PARA O LITORAL ME BENZI NAS ONDAS DE 
         A
AREIA E SAL
                           
          F                      C                F
ABRACEI CANTANDO DE SÃO PAULO AO SUL JÁ CHOREI EM MINAS
              E 
NA MONTANHA AZUL
REPETE: (Refrão + solo)
           
            E                A             E               
OURO DE RONDÔNIA FLOR DO CARIRI PEIXE DE VITÓRIA BOI DO 
    A
PIAUÍ                       
            F             C                   F
NAMORAR NO RIO VIVER CARNAVAL A MULHER DE  BRONZE LÁ DO
      E
PANTANAL (Refrão + solo )

Clipes

Cifra Club Pro

Aproveite o Cifra Club com benefícios exclusivos e sem anúncios
Cifra Club Pro
Aproveite o Cifra Club com benefícios exclusivos e sem anúncios