busca

Meu Jeito de Sentir

Bruno e Marrone

Tom: G
[Intro] G

E|-7--7h8-7-5-5-3------2-0--2-3-5-3-5-8-7-5-3--|
B|-8--7-------5-3------3-1------5-----7-8-5-3--|
G|-7--7---------0--0h2-2-0------------7-7---0--|
D|---------------------------------------------|
A|-----------------------3---------------------|
E|---------------------------------------------|

G            D/F#        Em            Bm
   Toda vez que vai sair o sol, eu estou
 C            G        D        D7  D7/F#
   Esperando por você aqui, meu amor
 G             D/F#        Em           Bm
   A distância não consegue nunca afastar
 C                G          D              D7
   A esperança de mais uma vez, poder te amar
      G       D/F#                 Em
Só você, só você que conhece meu jeito de sentir
     C          D             G
Meu jeito de sorrir e até meu jeito de chorar
      D  D7  G
Só você,  me conhece amor
      D  D7       C  D7      G
Só você,  sabe bem quem sou

E|-7--7h8-7-5-5-3------2-0--2-3-5-3-5-8-7-5-3--|
B|-8--7-------5-3------3-1------5-----7-8-5-3--|
G|-7--7---------0--0h2-2-0------------7-7---0--|
D|---------------------------------------------|
A|-----------------------3---------------------|
E|---------------------------------------------|

 G                      D/F#     Em       Bm
   Quando estou sozinho em casa, fico a pensar
 C               G       D                     D7  D7/F#
   Se existe um outro alguém tomando meu lugar
 G              D/F#  Em               Bm
   Se um dia alguma coisa triste acontecer
 C                 G          D                D7
   O que existe em nos só Deus consegue desfazer

     G      D/F#                 Em
Só você,só você que conhece meu jeito de sentir
     C          D              G
Meu jeito de sorrir e até meu jeito de chorar
      D  D7  G
Só você,  me conhece amor
      D  D7       C  D7      G
Só você,  sabe bem quem sou

 G          D/F#           Em                Bm
   Quando o fim do dia chega, só penso em te ver
 C                G      D          D7
   O meu coração sozinho grita por você
 G            D/F#           Em          Bm
   Nada neste mundo vai fazer-me te esquecer
 C              Am             D
   Mesmo se um dia por outro amor eu me perder

G           D/F#                 Em
Só você,só você que conhece meu jeito de sentir
     C          D              G
Meu jeito de sorrir e até meu jeito de chorar
      D  D7  G
Só você,  me conhece amor
      D  D7       C  D7      G
Só você,  sabe bem quem sou

       D  D7  G
 Só você,  meu amor
       D  D7  G
 Só você,  sabe bem quem sou
       D  D7  G    D   G
 Só você,  meu amor

Clipes

Cifra Club Pro

Aproveite o Cifra Club com benefícios exclusivos e sem anúncios
Cifra Club Pro
Aproveite o Cifra Club com benefícios exclusivos e sem anúncios