O Sonho Não Acabou

Bruno e Marrone

A
123
X02220
Bm7
34
X24232
D
123
XX0232
G
123
320003
Tom: G
[Intro] D  A  Bm7  G

#1t1##1t2#E|-----------------------------------------------|
B|-3/-----10------7-5-------3/-----10---5b-3-----|
G|--------------2--------------------------------|
D|-----------------------------------------------|
A|-----------------------------------------------|
E|-----------------------------------------------|#/1t2##/1t1#

[Primeira Parte]

D                 A  Bm7
 O sonho não acabou
         G          D
 Vale a pena acreditar
                A    Bm7
 Deus criou o amor
           G                  D
 E fez um dia eu te encontrar

[Solo] D  A  Bm7  G

#2t1##2t2#E|--------------------------------5-5-5-5-5-5-5-|
B|-3/--10----7-5---3---10--5b-3---3-3-3-3-3-3-3-|
G|----------2-----------------------------------|
D|----------------------------------------------|
A|----------------------------------------------|
E|----------------------------------------------|#/2t2##/2t1#

[Segunda Parte]

D                 A    Bm7
 Queria tanto sentir
          G          D
 o seu abraço e dormir
                     A    Bm7
 Mas o que eu vou fazer
          G          
 Se você não esta aqui

[Pré-Refrão]

          G            Bm7
 A noite vem, saudade faz 
          A                 
 meu coração perder a paz
           G           Bm7
 Quero te ver, te escutar
            A
 Te quero amar

[Refrão]

          D       A
 Mas não vê meu amor
        Bm7       G
 E nem sabe quem sou
          D                  A
 Como a noite que esconde o dia
         Bm7       
 Vou tentando te buscar
       G                     (D)
 Escondida atras de seu olhar 

[Solo] D  A  Bm7  G

#3t1##3t2#E|--------------------------------5-5-5-5-5-5-5-|
B|-3/--10----7-5---3---10--5b-3---3-3-3-3-3-3-3-|
G|----------2-----------------------------------|
D|----------------------------------------------|
A|----------------------------------------------|
E|----------------------------------------------|#/3t2##/3t1#

[Pré-Refrão]

A          G            Bm7
 A noite vem, saudade faz 
          A
 meu coração perder a paz
           G           Bm7
 Quero te ver, te escutar
            A
 Te quero amar

[Refrão]

          D       A
 Mas não vê meu amor
        Bm7       G
 E nem sabe quem sou
          D                  A
 Como a noite que esconde o dia
         Bm7               G
 Vou tentando te buscar

[Ponte]

Bm7
 E quando amanhecer
A
 eu sei que vou estar
G
 te procurando pelas ruas em qualquer lugar 

Bm7
 E quem olhar vai ver
A
 que ainda vive em mim
G                    A
 essa vontade de você que não tem fim

[Refrão]
          D       A
 Mas não vê meu amor
        Bm7       G
 E nem sabe quem sou
          D                  A
 Como a noite que esconde o dia
         Bm7       
 Vou tentando te buscar
       G                     (D)
 Me Esconde atras de seu olhar

#4t1##4t2#E|-------------------------------------------10-9--------------|
B|-3/-----10------7-5--------3/-----10-------------10----10-12-|
G|--------------2-------------------------------------11-------|
D|-------------------------------------------------------------|
A|-------------------------------------------------------------|
E|-------------------------------------------------------------|#/4t2##/4t1#
Composição: Bruno/GiulianoColaboração e revisão: Rick AlvesFelipe Macedoluiz antonioWesley Saturninoe mais 2