/ / Eu já sei, sei que vai ligar / Querendo me encontrar / Mas sei que vou estar aqui / Você fez meu co" /> / / Eu já sei, sei que vai ligar / Querendo me encontrar / Mas sei que vou estar aqui / Você fez meu co">
busca

Por Te Amar Demais

Bruno e Marrone

Tom: C
[Intro] C  G/B  F/A  G
        C  G/B  F/A  G

E|-8--7-8-10-7-8--7-8-10-7-8--7-8-10-7-8-7--|
B|-----------------------------------------8|
G|------------------------------------------|
D|------------------------------------------|
A|------------------------------------------|
E|------------------------------------------|

[Primeira Parte]

       C    G/B           F/A
Eu já sei, sei que vai ligar
    G              C
Querendo me encontrar 
     G/B           F/A   G
Mas sei que vou estar aqui
      C       G/B        F/A
Você fez meu coração chorar
    G          C 
Se foi sem avisar 
     G/B             F/A    G
Nem deu valor no que eu senti

[Pré-Refrão]

    F             G             Am  Am/G
Cuidado o que se faz se paga aqui
   F              G           C
O nosso amor não vai ficar assim

[Refrão]

           G/B            F/A           G
Se for sonhar, se for sofrer, se apaixonar
      F      G     C
E alguém magoar você
           G/B            F/A             G
Se for sonhar, se for sofrer, vai se lembrar
    F       
Que eu amo você

[Solo] C  G/B  F/A  G
       C  G/B  F/A  G

E|-8--7-8-10-7-8--7-8-10-7-8--7-8-10-7-8-7--|
B|-----------------------------------------8|
G|------------------------------------------|
D|------------------------------------------|
A|------------------------------------------|
E|------------------------------------------|

[Primeira Parte]

       C    G/B           F/A
Eu já sei, sei que vai ligar
    G              C
Querendo me encontrar 
     G/B           F/A   G
Mas sei que vou estar aqui
      C       G/B        F/A
Você fez meu coração chorar
    G          C 
Se foi sem avisar 
     G/B             F/A    G
Nem deu valor no que eu senti

[Pré-Refrão]

    F             G             Am  Am/G
Cuidado o que se faz se paga aqui
   F              G           C
O nosso amor não vai ficar assim

[Refrão]

           G/B            F/A           G
Se for sonhar, se for sofrer, se apaixonar
      F      G     C
E alguém magoar você
           G/B            F/A             G
Se for sonhar, se for sofrer, vai se lembrar
    F       
Que eu amo você

[Ponte]

Am                 G/B
  Te perdôo outra vez
                     C
Esqueço tudo que me fez
      F            G
Por amor, por te amar demais
Am                      G/B
  Pois quem ama fica assim
                  C
E o amor esta em mim
         F         G      A    
Vem trazer de volta a minha paz

[Solo] D  G  A  Bm  A  G  

E|------------------------------------------|
B|-7-8-7--------7-7-------------------------|
G|-------9--7-9-----9p7h9-7\4---------------|
D|------------------------------------------|
A|------------------------------------------|
E|------------------------------------------|

E|------------------------------------------|
B|-10b12-10b12-10p8h10-8--------------------|
G|-----------------------7------------------|
D|------------------------------------------|
A|------------------------------------------|
E|------------------------------------------|

E|---------------------10---8---------------|
B|-------8---10---12------8-----------------|
G|-4/9-9---9----9----9----------------------|
D|------------------------------------------|
A|------------------------------------------|
E|------------------------------------------|

[Refrão]

           G/B            F/A           G
Se for sonhar, se for querer, se apaixonar
      F      G     C
E alguém magoar você
           G/B            F/A             G
Se for sonhar, se for sofrer, vai se lembrar
    F         C  G/B  F/A  
Que eu amo você
G               C
  Que eu amo você

Clipes