/ / / /(Parte 1) / Amigo encosta esse carro na porta de um bar. / Abre o port" /> / / / /(Parte 1) / Amigo encosta esse carro na porta de um bar. / Abre o port">
busca

Seu Polícia

Bruno e Marrone

Tom: A
Tom: A

Solo
          A                     E    D                 A
E|-----------9--9--9--5-5-5--4h7---10p9-10p9----------9--------------|
B|------10--10-10-10--7-7-7--5h9-------------12-10-12----------------|
G|-9h11--------------------------------------------------------------|
D|-------------------------------------------------------------------|

          A                     E    D      A         D
E|-----------9--9--9--5-5-5--4h7---10p9------------9-10--------------|
B|------10--10-10-10--7-7-7--5h9--------12-10---12-------------------|
G|-9h11--------------------------------------------------------------|
D|-------------------------------------------------------------------|

(Parte 1)

 A                                      E
Amigo encosta esse carro na porta de um bar.
                              D  Dm7                      A    E7
Abre o porta malas e põe pra tocar, aquela canção de saudade.
 A                          E
Abre o volume bem alto e deixa tocar.
                            D
Quem sabe assim dá pra ela escutar.
E                  A
Do outro lado da cidade.

(Parte 2)

E                                D
Garçom separa uma caixa de cerveja.
                            A                     E
Que hoje eu só saio dessa mesa depois que clarear.
 E                                   D
Se o policial chegar.....pedindo silêncio.
                      A
Deixa que com ele eu me entendo.
             E          A   E
Agora eu já sei o que falar.

(Refrão)

A               E          D               A
Seu polícia não fecha, o porta malas por favor.
A              E       D          E      A
Seu polícia entenda, é só uma canção de amor.
A               E      D                  A
Seu polícia não fecha, o porta malas por favor.
               E        D              E   A
Seu polícia entenda, quem tá sofrendo por amor

Solo

(Repete a partir da Parte 2)

Clipes