busca

Seu Polícia

Bruno e Marrone

Tom: A (forma dos acordes no tom de G) Capotraste na 2ª casa
Intro: G  D  C  G  D  C  D  C
E|------------9-9-9---------------------------|---10-9-7-----7----9-9-9-|
B|-------10----------10-10-10-9-10h12---------|----------10----10-------|
G|-9-11---------------------------------------|-9-----------------------|
D|--------------------------------------------|-------------------------|
A|--------------------------------------------|-------------------------|
E|--------------------------------------------|-------------------------|

E|------------9-9-9----------------------|---10-9-----------------9-10--|
B|-------10-----------10-10-10-9-10h12---|----------12-10-10-12---------|
G|-9-11----------------------------------|-9----------------------------|
D|---------------------------------------|------------------------------|
A|---------------------------------------|------------------------------|
E|---------------------------------------|------------------------------|

 G                                      D
Amigo encosta esse carro na porta de um bar.
                              C  Cm                      G    D7
Abre o porta malas e põe pra tocar, aquela canção de saudade.
 G                          D
Abre o volume bem alto e deixa tocar.
                            C
Quem sabe assim dá pra ela escutar.
D                  G     ( G  F#m  Em )
Do outro lado da cidade.

Segunda Parte:
D                                C
Garçom separa uma caixa de cerveja.
                            G                     D ( G  F#m  Em )
Que hoje eu só saio dessa mesa depois que clarear.
 D                                   C
Se o policial chegar.....pedindo silêncio.
                      G
Deixa que com ele eu me entendo.
             D          G   ( D  Em  F#m )
Agora eu já sei o que falar.

Refrão:
G               D          C               G
Seu polícia não fecha, o porta malas por favor.
G              D       C                G
Seu polícia entenda, é só uma canção de amor.

G               D      C                  G
Seu polícia não fecha, o porta malas por favor.
               D        C                 G
Seu polícia entenda, quem tá sofrendo por amor

Solo: G  D  C  G  D  C  G  F#m  Em  D
E|------------9-9-9------------------|---10-9-7----7-----9-9-9-|
B|-------10---------10-10-10-9-10h12-|----------10---10--------|
G|-9-11------------------------------|-9-----------------------|
D|-----------------------------------|-------------------------|
A|-----------------------------------|-------------------------|
E|-----------------------------------|-------------------------|

E|-----------9-9-9-------------------|---10-9------------------|
B|-------10---------10-10-10-9-10h12-|--------12-10-10--10-9-7-|
G|-9-11------------------------------|-9-----------------------|
D|-----------------------------------|-------------------------|
A|-----------------------------------|-------------------------|
E|-----------------------------------|-------------------------|

(Segunda Parte)

(Refrão 4x)

Clipes

Cifra Club Pro

Aproveite o Cifra Club com benefícios exclusivos e sem anúncios
Cifra Club Pro
Aproveite o Cifra Club com benefícios exclusivos e sem anúncios