/ / Não fala nada, deixa tudo assim por mim / Eu não me importo se nós não somos bem assim /" /> / / Não fala nada, deixa tudo assim por mim / Eu não me importo se nós não somos bem assim /">
busca

Só Pro Meu Prazer

Bruno e Marrone

Tom: C
[Intro] D9  D/G  D9  D/G
        D9  D/G  D9  D/G

(Riff)

E|------------------|---------------|
B|------------------|------------5~-|
G|-------2---2------|---------------|
D|--2/4----4--------|--4--7--4/7----|
A|------------------|---------------|
E|------------------|---------------|

  D9                 G
Não fala nada, deixa tudo assim por mim
  D9                         G
Eu não me importo se nós não somos bem assim

D9                         G
É tudo real, as minhas mentiras
D9                     G                        A Bm
E assim não faz mal, e assim não me faz mal não

Bm
Noite e dia se completam
         A
Nosso amor e ódio eterno
Bm
Eu te imagino, eu te conserto
            A
Eu faço a cena que eu quiser
Em                              Bm
Tiro a roupa pra você, minha maior ficção de amor
Em             G      D   D9
Eu te recriei só pro meu prazer
                D9
Só pro meu prazer

( D9  D/G  D9  D/G )
( D9  D/G  D9  D/G )

(Riff)

E|------------------|---------------|
B|------------------|------------5~-|
G|-------2---2------|---------------|
D|--2/4----4--------|--4--7--4/7----|
A|------------------|---------------|
E|------------------|---------------|

D9                   D/G
Não vem agora com essas insinuações
D9                       D/G
Os seus defeitos ou de algum medo normal
D9                              D/G
Será que você não é nada que eu penso
D9                        D/G
Também se não for, não me faz mal
                 A Bm
Não me faz mal não.

Bm
Noite e dia se completam
         A
Nosso amor e ódio eterno
Bm
Eu te imagino, eu te conserto
            A
Eu faço a cena que eu quiser
Em                              Bm
Tiro a roupa pra você, minha maior ficção de amor
Em             G      D   D9
Eu te recriei só pro meu prazer
                D9
Só pro meu prazer

[Solo]

E|----------5---7/9-9-9-9---------7-7----------------------------|
B|----------5-----------10-10--------7-7-------------------------|
G|--------6-------------------11-11------------------------------|
D|----4-7--------------------------------------------------------|
A|--5------------------------------------------------------------|
E|---------------------------------------------------------------|

E|-------7-7-----------------------------------------------------|
B|-10-10----7-7-10-10---7-7--------------------------------------|
G|-------------------9-9---7-7-9-9-------------------------------|
D|--------------------------------/12-12-11-12--9----------------|
A|---------------------------------------------------------------|
E|---------------------------------------------------------------|

E|-----9-12-9------7/9-----------------------9-12-9-----------14-|
B|---10------10-------10-7-7p10-7---------10-------10---------15-|
G|-11----------11----------------9-----11------------11----------|
D|---------------------------------------------------------------|
A|---------------------------------------------------------------|
E|---------------------------------------------------------------|

E|-12-----9------10----------9-----------------------------------|
B|--------------------12------------10------12-----10------------|
G|---11-11--11-11--11---11-11--11-11---11-11--11-11--------------|
D|---------------------------------------------------------------|
A|---------------------------------------------------------------|
E|---------------------------------------------------------------|

E|---------------------------------------------------------------|
B|-3-2-3-2-3-2---------------------------------------------------|
G|-------------4-2-4-2-4-2-4-2-----------------------------------|
D|-----------------------------4-2-0-----------------------------|
A|-----------------------------------4-2-------------------------|
E|---------------------------------------------------------------|

Clipes