/ / / / Foi tão difícil entender / Foi complica" /> / / / / Foi tão difícil entender / Foi complica">
busca

Sonho Louco

Bruno e Marrone

Tom: D
[Intro] Em  A  D  E
        Em  A  D

E|------------------------------------------|
B|-----3---3---3-5-7--5/7~--5~--------------|
G|-2/4---4---4------------------------------|
D|------------------------------------------|
A|------------------------------------------|
E|------------------------------------------|

E|------------------------------------------|
B|-----3---3---3-5-7--5/7~------------------|
G|-2/4---4---4------------------------------|
D|------------------------------------------|
A|------------------------------------------|
E|------------------------------------------|

[Primeira Parte]

                      Em   A
Foi tão difícil entender
           F#m      Bm7
Foi complicado pra mim
            Em          A
Hoje eu sonhei com você
          D             D/C#
Nunca sofri tanto assim

[Segunda Parte]

          Em           A
Te vi beijando na boca
               F#m       Bm7
De alguém que não era eu
        Em             A
E entregou feito louca
                D       G  A
Aquele amor que era meu

[Refrão]

            D
Quando acordei, estava ali
            Em
Bem do meu lado
       D/F#   G      D/F#    Em  A
Nem te a__cordei, então te amei
        D             A        
Desesperado, inconformado

G/B    A/C#     D            D#°
    Então me olhou, e perguntou
          G                  Gm
Do meu sufoco, se eu fiquei louco
             D         A
É que eu perdi o seu amor
           D
Num sonho louco

[Solo] Em  A  D  E
       Em  A  D

E|------------------------------------------|
B|-----3---3---3-5-7--5/7~------------------|
G|-2/4---4---4------------------------------|
D|------------------------------------------|
A|------------------------------------------|
E|------------------------------------------|

[Segunda Parte]

          Em           A
Te vi beijando na boca
               F#m       Bm7
De alguém que não era eu
        Em             A
E entregou feito louca
                D       G  A
Aquele amor que era meu

[Refrão]

            D
Quando acordei, estava ali
            Em
Bem do meu lado
       D/F#   G      D/F#    Em  A
Nem te a__cordei, então te amei
        D             A        
Desesperado, inconformado

G/B    A/C#     D            D#°
    Então me olhou, e perguntou
          G                  Gm
Do meu sufoco, se eu fiquei louco
             D         A
É que eu perdi o seu amor
           D    E
Num sonho louco

             D         A
É que eu perdi o seu amor
           
Num sonho louco

[Final] Em  A  D  

E|------------------------------------------|
B|-----3---3---3-5-7--5/7~------------------|
G|-2/4---4---4------------------------------|
D|------------------------------------------|
A|------------------------------------------|
E|------------------------------------------|

Clipes