Surto de Amor (part. Jorge & Mateus)

Bruno e Marrone

Am7
12
X02010
Bb
234
X13331
Dm
123
XX0231
F
234
133211
Tom: G
[Intro] F  

[Primeira Parte]

              F
Ela tava tão linda
                Am7
Mesmo abraçando ele
                 Dm
O amor da minha vida
                     Bb
Sendo exibida de troféu por ele

[Pré-Refrão]

                   F
Vez ou outra me olhava
                Am7
Como quem diz: Vem cá
                Dm
E na frente do povo, num surto de amor
                 Bb
Peguei ela nos braços e a festa parou

[Refrão]

               F
A gente se beijando e o mundo caindo
            Am7
Um inconformado e dois doido varrido
           Dm
E os convidados de queixo caído
            Bb
Me vendo levar ela embora comigo

               F
A gente se beijando e o mundo caindo
            Am7
Um inconformado e dois doido varrido
           Dm
E os convidados de queixo caído
            Bb
Me vendo levar ela embora comigo

[Solo] F  Am7  Dm  Bb
       F  Am7  Dm  Bb

#1t1##1t2#E|----------------------------------------------------|
B|----------------------------------------------------|
G|----------------------------------------------------|
D|-----3---3~-----3-5-5/7--7~~------------------------|
A|-3h5---5----3h5-------------------------------------|
E|----------------------------------------------------|#/1t2##/1t1#

#2t1##2t2#E|----------10----------------------------------------|
B|-------10----13p10-13-------------------------------|
G|-12h14-------------14b-10-12-9~---------------------|
D|----------------------------------10h12---10--------|
A|----------------------------------------------------|
E|----------------------------------------------------|#/2t2##/2t1#

#3t1##3t2#E|------------10--------------------------------------|
B|-10------10----13p10--------------------------------|
G|----12b14-------------12b14-12b14r12p10----10-------|
D|----------------------------------------12----12-10-|
A|----------------------------------------------------|
E|----------------------------------------------------|#/3t2##/3t1#

#4t1##4t2#E|----------------------------------------------------|
B|----------------------------------------------------|
G|----------------------------------------------------|
D|----10h12-------------------------------------------|
A|-12-------------------------------------------------|
E|----------------------------------------------------|#/4t2##/4t1#

[Pré-Refrão]

                   F
Vez ou outra me olhava
                Am7
Como quem diz: Vem cá
                Dm
E na frente do povo, num surto de amor
                 Bb
Peguei ela nos braços e a festa parou

[Refrão]

               F
A gente se beijando e o mundo caindo
            Am7
Um inconformado e dois doido varrido
           Dm
E os convidados de queixo caído
            Bb
Me vendo levar ela embora comigo

               F
A gente se beijando e o mundo caindo
            Am7
Um inconformado e dois doido varrido
           Dm
E os convidados de queixo caído
            Bb
Me vendo levar ela embora comigo

( F  Am7  )

           Dm
E os convidados de queixo caído
            Bb
Me vendo levar ela embora comigo
Composição: Daniel Deolli / Davi Jonas / Edu Moura / Matheus de Paula / NormaniColaboração e revisão: Anderson LacerdaGetúlio Vasconcelos