busca

Te Amar Foi Ilusão

Bruno e Marrone

Tom: C
(Luiz Cláudio / Bruno)
 

· O uso do traço - antes das posiçoes indica que anota é tocada mais
  alta ou seja bata com mais força.

· Os toques do solo do meio entre as chaves {} sao tocados somente
  relando o dedo na corda sem apertar.
· Os acordes seguidos de um ponto de exclamação "!" são tocados com
  emoção e som é abafado em seguida.
· A posição dos acordes sobre a letra segue à risca o instante exato
  que ele é tocado.
 
obs: se tocar com 2 guitarras e é melhor ainda com teclado entao vai
     ficar perfeita, mas eu transcrevi essa cifra pras bandas que nao
     tenha teclado, pois as duas guitarras vao solar e deixar a base
     por conta do baixo na introdução. 

[Solo Intro(riff do Teclado trascrito para guitarra 1):] 1° a ser executado
e|-------------5--7----
B|--5----6--8--------8-
G|---------------------
D|---------------------
A|---------------------
E|---------------------

Riff da guitarra 2 com distorção     2° a ser executado
                                 
e|-------8-7---5--7------
B|--4/5--------------8---
G|-----------------------
D|-----------------------
A|-----------------------
E|-----------------------

Riff da guitarra 1
e|-------3-3---5---------
B|--3--5-------------6---
G|-----------------------
D|-----------------------
A|-----------------------
E|-----------------------
   
Riff da guitarra 2 com distorção                                  (o erro estava aqui}
e|------5--3--1--0--1-/-8--10--12-13-12h13h12--------15/17-15-13-12-12-15-13-12-10h12h10--------|
B|--------------------------------------------15-13-------------------------------------12-10-8-|
G|--4/5-----------------------------------------------------------------------------------------|
D|----------------------------------------------------------------------------------------------|
A|----------------------------------------------------------------------------------------------|
E|----------------------------------------------------------------------------------------------|
 
primeiro faz o riff n° 1 do teclado depois, ai entra a guitarra de
solo(2) enquanto o baixo faz essa sequencia
[Intro:]G G F F C-F G-F-Am-G
 
[Verso 1:]
    C1 C2
Eu sei
    C               C2                 G1   G2
Talvez eu tenha sufocado o teu sentimento
     G1              G2              F   -F7M
Não consegui sintonizar teu pensamento
   F               -F7M       C
Saber o que você queria arrancar de mim  G|---------0-------------
                                         D|----0h2----------------
                                         A|--3--------------------

       G1
Me deixando assim
     F
Não sei
   F                                       C1     
Será que eu me enganei o tempo todo com o seu olhar
    C1                               G1   G1-F-G1
Apesar de tudo o que vivi eu me deixei levar
    F     G1
Que ilusão
         C1  F G1 F G1 
Foi te amar
 
[Refrão 1:]
G1    F G1 C1
  Vai encontrar
    C1!                                        G1
Alguém que você ame e que te faça o que fez comigo
G1           F
  E vai chorar
      F                                     C1
Cada lágrima que um dia derramei por te quereeer
            G1
   Por  te amar
G1  F  G1   C1
 E vai sen...tir
   C1         C1              C2           C1    G1
A dor da indiferença desse alguém que só te en...gana
G1          F -F
  Vai aprender
     G1                  -G1
A viver e dar valor no amor
           C  -G1
De quem te ama
  
Riff da guitarra 2 com distorção
[Solo:] C1 G1 Am Am Dm F G1 C1 C7
   
          C1                 G1              Am
e|----------------------------------------------------------------------------------|
B|------5/6-5-5--3--5~~----6-5-3-3-1-3~---------------------------------------------|
G|---5-7-----------------5---------------2/4-5-7-7-5-5-4-5--5-4-----4-5-------------|
D|--5-----------------5-7---------------------------------------7-5-----7-5-7-------|
A|----------------------------------------------------------------------------------|
E|----------------------------------------------------------------------------------|
             Dm                   F                G1          C1  C7
e|----------------------------------------------------------------------------------|
B|-------6-6/8-6-6-5-6----6-5------------------------------------------5-6-6/8--13--|
G|---5-7------------------------7-5-5---------5-----5-4--4-5-7-5-7-5-7--------------|
D|--7----------------------------------7----7-----7-----5---------------------------|
A|---------------------------------------8------8-----------------------------------|
E|----------------------------------------------------------------------------------|
[Verso 2:]
     F -G1
Não sei
   F                                       C1
Será que eu me enganei o tempo todo com o seu olhar
    C1                              G1   G1-F-G1
Apesar de tudo o que vivi eu me deixei levar
    F     G1
Que ilusão
         C1  F G1 F G1 
Foi te amar
 
[Refrão 2:]

G1    F G1 C1
  Vai encontrar
    C1!                                        G
Alguém que você ame e que te faça o que fez comigo
G1          F
  E vai chorar
      F                                     C1
Cada lágrima que um dia derramei por te quereeer
            G1
   Por  te amar
G1  F  G1   C1
 E vai sen...tir
   C1         C1              C2           C1    G1
A dor da indiferença desse alguém que só te en...gana
G1          F -F
  Vai aprender
     G1                  -G1!
A viver e dar valor no amor
           C1  C1 F-G1-F C1 C1 C1 
De quem te ama 
 Riff e|------------------|
      B|------------------|
      G|------4-5--7-5-5-5|
      D|--5-7-------------|
      A|------------------|
      E|------------------|      
[C1 = 032010]
[C2 = 032000]
[G1 = 320033] 
[G2 = 320030]

Clipes

Cifra Club Pro

Aproveite o Cifra Club com benefícios exclusivos e sem anúncios
7 dias grátis
Cifra Club Pro
Aproveite o Cifra Club com benefícios exclusivos e sem anúncios
7 dias grátis