busca

Touchscreen

Bruno e Marrone

Tom: Em
[Intro] C  D9(11)  Em
        C  D9(11)  Em

E|-2/3-2------------------------------------|
B|--------3--0--0---------------------------|
G|-2/4-2------------------------------------|
D|--------4--2--0h2--2p0h2/4-5/7------------|
A|------------------------------------------|
E|------------------------------------------|

                    H.N.
E|-2/3-2------------------------------------|
B|--------3--5-3/5---7----------------------|
G|-2/4-2---------------7--------------------|
D|--------4--5-4/5--------------------------|
A|------------------------------------------|
E|------------------------------------------|

[Primeira Parte]

                   C
Na palma da minha mão
       D9(11)
São 3 toques pra poder te ver
G            D/F#    Em
  Eu não consigo evitar
 
                  C
Eu desbloqueio a tela 
        D9(11)
O dedo corre pra te procurar
G            D/F#   Em 
  É fácil de encontrar

[Pré-Refrão]

 C                        D9(11)
Mas o que adianta eu desbloquear
 C                        D9(11)
Se o seu coração tá bloqueado pra me amar

[Refrão]

               C        D9          Em
O trincado da tela separou a nossa foto
               C            D9            Em
Do papel de parede, lá do quarto que era nosso
                C            D9    Em 
Eu trocaria as fotos pra te ter aqui
              C          D9     G
Tô fazendo carinho pelo touchscreen

               C        D9          Em
O trincado da tela separou a nossa foto
               C            D9            Em
Do papel de parede, lá do quarto que era nosso
                C            D9    Em 
Eu trocaria as fotos pra te ter aqui
              C          D9     G
Tô fazendo carinho pelo touchscreen

[Solo] C  D9(11)  Em
       C  D9(11)  Em

E|-2/3-2------------------------------------|
B|--------3--0--0---------------------------|
G|-2/4-2------------------------------------|
D|--------4--2--0h2--2p0h2/4-5/7------------|
A|------------------------------------------|
E|------------------------------------------|

                    H.N.
E|-2/3-2------------------------------------|
B|--------3--5-3/5---7----------------------|
G|-2/4-2---------------7--------------------|
D|--------4--5-4/5--------------------------|
A|------------------------------------------|
E|------------------------------------------|

[Primeira Parte]

                   C
Na palma da minha mão
       D9(11)
São 3 toques pra poder te ver
G            D/F#    Em
  Eu não consigo evitar
 
                  C
Eu desbloqueio a tela 
        D9(11)
O dedo corre pra te procurar
G            D/F#   Em 
  É fácil de encontrar

[Pré-Refrão]

 C                        D9(11)
Mas o que adianta eu desbloquear
 C                        D9(11)
Se o seu coração tá bloqueado pra me amar

[Refrão]

               C        D9          Em
O trincado da tela separou a nossa foto
               C            D9            Em
Do papel de parede, lá do quarto que era nosso
                C            D9    Em 
Eu trocaria as fotos pra te ter aqui
              C          D9     G
Tô fazendo carinho pelo touchscreen

               C        D9          Em
O trincado da tela separou a nossa foto
               C            D9            Em
Do papel de parede, lá do quarto que era nosso
                C            D9    Em 
Eu trocaria as fotos pra te ter aqui
              C          D9     G
Tô fazendo carinho pelo touchscreen
              C          D9     G
Tô fazendo carinho pelo touchscreen

[Final] C  D9(11)  Em
        C  D9(11)  Em

E|-2/3-2------------------------------------|
B|--------3--0--0---------------------------|
G|-2/4-2------------------------------------|
D|--------4--2--0h2--2p0h2/4-5/7------------|
A|------------------------------------------|
E|------------------------------------------|
                  
E|-2/3-2------------------------------------|
B|--------3--5-3/5--------------------------|
G|-2/4-2------------------------------------|
D|--------4--5-4/5--------------------------|
A|------------------------------------------|
E|------------------------------------------|

Clipes

Cifra Club Pro

Aproveite o Cifra Club com benefícios exclusivos e sem anúncios
Cifra Club Pro
Aproveite o Cifra Club com benefícios exclusivos e sem anúncios