Vai Curtir, Vai Dançar

Bruno e Marrone

A
123
X02220
Bm
234
X24432
D
123
XX0232
Em
12
022000
F#m
34
244222
G
123
320003
Tom: G
     Em 
Tenho medo de encontrar você 
            A        D 
Andando por aí, e me machucar 
       Em 
Do meu jeito vou tentando te esquecer 
          A                D 
E fico aqui, não vou te segurar 
 
     G 
To sabendo que você já vai sair 
        A 
E tá perdendo a hora 
       F#m 
Que tá cheia de amigas te esperando 
           Bm  
Do lado de fora 
        Em
Que não quer me ver 
       G         A  
Que só quer viver 
         D   G A 
A vida agora 
 
     D                        Em  
Vai curtir, vai dançar, vai beber 
                   A 
Se iludir, me esquecer 
                         D  A  
Em outras bocas se entregar 
     D                     Em 
Tudo bem, se não quer meu amor 
                    A 
Eu vou curtindo a minha dor 
                      D 
E outra noite vou chorar 

#1t1#Solo: G Em D A G D
#1t2#e|----------------------------------------------------------------------
b|--------8b7-5-----5-------5-------5/7------8b7---5-------5------5-----
g|-------------------7------7-------7------- ----------------7-------7--
d|----------------------------------------------------------------------
a|----------------------------------------------------------------------
e|----------------------------------------------------------------------#/1t2##/1t1#

#2t1##2t2#------------- ----------10----------------------------------------------------------|
-5/7----4/7--------8-----10-----7---8-----10------12---8-10-------------------------|
----7------------------------------------7-------9----11-----------------8----7/6/7-|
----------------------------------------------------------------------7/9-----------|
------------------------------------------------------------------------------------|
------------------------------------------------------------------------------------|#/2t2##/2t1#


Volta em " Tô sabendo..." 
 
Cifra por Marcos Antonio
Composição: Edson / João VitorColaboração e revisão: Andre Rodrigues