busca

Vai Curtir, Vai Dançar

Bruno e Marrone

Tom: D
     Em 
Tenho medo de encontrar você 
            A        D 
Andando por aí, e me machucar 
       Em 
Do meu jeito vou tentando te esquecer 
          A                D 
E fico aqui, não vou te segurar 
 
     G 
To sabendo que você já vai sair 
        A 
E tá perdendo a hora 
       F#m 
Que tá cheia de amigas te esperando 
           Bm  
Do lado de fora 
        Em
Que não quer me ver 
       G         A  
Que só quer viver 
         D   G A 
A vida agora 
 
     D                        Em  
Vai curtir, vai dançar, vai beber 
                   A 
Se iludir, me esquecer 
                         D  A  
Em outras bocas se entregar 
     D                     Em 
Tudo bem, se não quer meu amor 
                    A 
Eu vou curtindo a minha dor 
                      D 
E outra noite vou chorar 

Solo: G Em D A G D
e|----------------------------------------------------------------------
b|--------8b7-5-----5-------5-------5/7------8b7---5-------5------5-----
g|-------------------7------7-------7------- ----------------7-------7--
d|----------------------------------------------------------------------
a|----------------------------------------------------------------------
e|----------------------------------------------------------------------

------------- ----------10----------------------------------------------------------|
-5/7----4/7--------8-----10-----7---8-----10------12---8-10-------------------------|
----7------------------------------------7-------9----11-----------------8----7/6/7-|
----------------------------------------------------------------------7/9-----------|
------------------------------------------------------------------------------------|
------------------------------------------------------------------------------------|


Volta em " Tô sabendo..." 
 
Cifra por Marcos Antonio

Clipes