Vivendo de Passado

Bruno e Marrone

A
123
X02220
Am
123
X02210
B7
1234
X21202
C
123
X32010
D
123
XX0232
E
123
022100
F
234
133211
G
123
320003
Tom: G
 
Intro: E D A E A E D A F E Am

Intro

#1t1##1t2#E|--------------0-----------------0-------4---0---------------0--
B|--5-5---------5-----5----5-3----5-5-5-7---7-5~------------7-5~-
G|------6-4-----------7----6-4-6------------------7-7-6-7-9------
D|----------7-6---6-4----4-----7---------------------------------
A|---------------------------------------------------------------
E|---------------------------------------------------------------#/1t2##/1t1#


#2t1##2t2#E|--------------0------------------------------------------------
B|--5-5---------5-----5----5-3-----------------------------------
G|------6-4-----------7----6-4-6---------------------------------
D|----------7-6---6-4----4-----7---7-6-7-9-10-9h10p9-7-9-9h7p9-6-
A|-------------------------------7-------------------------------
E|---------------------------------------------------------------#/2t2##/2t1#


#3t1##3t2#E|----------------------5~---------------------------------------
B|----------------5p4h5------------------------------------------
G|---------5p4h5-------------------------------------------------
D|--7p6h7--------------------------------------------------------
A|---------------------------------------------------------------
E|---------------------------------------------------------------#/3t2##/3t1#

Am                      E 
Se o nosso amor se acaba 
                      Am 
Se o nosso amor termina 
                    G 
Já não me resta nada 
                  C 
Para viver na vida 
                  E 
Se não existe tudo 
                    Am
Se tudo é um momento 
                         B7
Eu fico com as lembranças 
                         E
Do que se foi com o tempo 

( 2ª parte )

                     E 
Me julga e me condena 
                     Am
Não escuta explicação 
                      G
Me olha assim com pena 
                 C
Nunca me dá razão 
                       E
Se esse é o meu castigo 
                  Am 
Amar sem ser amado 
                   E
Vou te levar comigo 
                     A
E viver só de passado 
#4t1#|                              E
#4t2#|Não se esqueça que eu te quero #/4t2##/4t1#
#5t1#| D                    A
#5t2#|Sem você eu não existo #/5t2##/5t1#
| E                                        A 
|Que aceito a metade do amor que eu preciso 
#6t1#| E 
#6t2#|Não se esqueça que eu te quero #/6t2##/6t1#
#7t1#| D                    A 
#7t2#|Sem você eu não existo #/7t2##/7t1#
| E 
|Que aceito a metade 
|                      A 
|Do amor que eu preciso
 

Repete 2ª (Parte)


Solo: E D A E A E D A F E Am 

Solo Final

#8t1##8t2#E|------------------------------------------------5~-------------
B|------------------------------------------5p4h5----------------
G|------------------------------------5p4h5----------------------
D|-7-9-10-9h10p9-7-9~-7h9p7-6---7p6h7----------------------------
A|---------------------------------------------------------------
E|---------------------------------------------------------------#/8t2##/8t1#
Composição: Caion Gadia / Claudio Rabelo / Manuel Monterrosas -Colaboração e revisão: Ricardo Uehara