busca

Vou Pedir À Deus Você

Bruno e Marrone

Tom: C
[Intro]

      C      G      F        C     G
E|----------------------------------------------|
B|----------------------------------------------|
G|----------------------------------------------|
D|----------------3/5-3-------------------------|
A|--0-3---5/7-5-----------5-5/7--5h3h5----------|
E|-3-----3-------3------3-----------------------|

 C     G       Am   D            G
Já não quer nascer flores no jardim
E              Am       C                G
Já não brilham mais as estrelas no céu pra mim
 C     G     Am   D           G
Foi o seu adeus que deixou assim
E            Am     F        C                G
Não sei explicar a dor do amor que chega ao fim

Am             E                 F
Mas foi só no seu coração que acabou
        Em                 Dm
Da minha vida você nem lembrou
           Am
O meu sentimento
D                                 G
O que é que eu faço das lembranças desse amor

C                  Em
Noites escuras, perdido nas ruas
Am                          G
Não tenho mais pra onde voltar
           G  G7
Se perdi você
  F
Saudade de tudo
   Fm
Perdido no mundo
Em                     Dm
Seu beijo é que me faz viver
     G              C
Vou pedir a Deus você

     C      G         F      C     G
E|---------------------------------------------|
B|---------------------------------------------|
G|---------------------------------------------|
D|---------------3/5-3-------------------------|
A|-0-3---5/7-5-----------5-5/7--5h3h5----------|
E |3-----3-------3------3----------------------|

Am             E                 F
Mas foi só no seu coração que acabou
        Em                 Dm
Da minha vida você nem lembrou
           Am
O meu sentimento 
D                                 G           G7
O que é que eu faço das lembranças desse amor oooo

C                  Em
Noites escuras, perdido nas ruas
Am                          G
Não tenho mais pra onde voltar
           G  G7
Se perdi você
  F
Saudade de tudo
   Fm
Perdido no mundo
Em                     Dm
Seu beijo é que me faz viver eee

C                  Em
Noites escuras, perdido nas ruas
Am                          G
Não tenho mais pra onde voltar
           G  G7
Se perdi você
  F
Saudade de tudo
   Fm
Perdido no mundo
Em                     Dm
Seu beijo é que me faz viver
     G              C     G
Vou pedir a Deus você
                  C
Vou pedir a Deus você

Clipes

Cifra Club Pro

Aproveite o Cifra Club com benefícios exclusivos e sem anúncios
Cifra Club Pro
Aproveite o Cifra Club com benefícios exclusivos e sem anúncios