/ / / / Gatinha manhosa / Do beijo gostoso / Me afasta, e me arranha / Mas a" /> / / / / Gatinha manhosa / Do beijo gostoso / Me afasta, e me arranha / Mas a">
busca

Vou Te Amarrar Na Minha Cama

Bruno e Marrone

Tom: C
Intro:

Solo
   C                G                   C        Am
E|-------------------------------------------------|
B|-------------------------------------------------|
G|-------------------------------------------------|
D|-------------------------0-3-3-2-0-3-2-----------|
A|-0-3-0-3-0-3-0-2-------2-------------------------|
E|-----------------3---3---------------------------|

    Am      Dm            G             C   G
E|---------0-0-------------------1-0---------------|
B|-1-1-1-3-----3-3-3-3-1-0---0-3-----3-1---3-3-3---|
G|-------------------------0-----------------------|
D|-------------------------------------------------|
A|-------------------------------------------------|
E|-------------------------------------------------|

             C
Gatinha manhosa
              C
Do beijo gostoso
                     G
Me afasta, e me arranha
                   F
Mas as nossas desavenças
                  G
Não entram no quarto
                       C
Quando a gente se assanha

                F
Esse amor escondido
             Fm
Minutos contados
            C
Amor proibido
            Am
Sabor de pecado
               Dm
Ou a gente se assume
             G
Ou acaba morrendo
            C   C7
De tanto ciúme

                F
Esse amor escondido
            Fm
Minutos contados
           C
Amor proibido
            Am
Sabor de pecado
                Dm
Ou a gente se assume
             G
Ou acaba morrendo
            C
De tanto ciúme

Refrão

C                         G
Vou te amarrar na minha cama
                      C  G/B  Am
Só vai fazer amor comigo
                  F
Eu te quero e preciso
              G
Só junto de você
                     C
A minha vida faz sentido   2x

Solo

Repete toda a música

Clipes