O Leãozinho

Caetano Veloso

Am
123
X02210
Am7
12
X02010
Bm7
34
X24232
C
123
X32010
C#m7(5-)
1234
X4545X
C7M
12
X3200X
D
123
XX0232
Em
12
022000
Em/D#
1
XX1000
Em7
123
022030
F
234
133211
G
123
320003
Tom: G
[Primeira Parte]


  G
A|--------2---------2---------2---
E|--------3---------3---------3---
G|-2-----------2---------2--------
G|----0------0----0---0----0----0-

A|----2-----| 
E|----3-----| 
G|2---------| 
G|--0---0---| 



                        D
A|-------2---------2---------0---
E|-------3---------3---------2---
G|-2----------2---------2--------
G|----0-----0----0---0----0----2-

A|----0------| 
E|----2------| 
G|2----------| 
G|--2---2----| 



   Em7                 Bm7 
A|-------2--------2---------2-----
E|-------0--------0---------2-----
G|-2----------2--------2--------2-
G|----0-----0---0---0----2----2---

A|--2-------| 
E|--2-------| 
G|----------| 
G|2---2-----| 



   C                    F  
A|-------3---------3---------0---
E|-------0---------0---------1---
G|-0----------0---------0--------
G|----0-----0----0---0----2----2-

A|----0------| 
E|----1------| 
G|0----------| 
G|--2---2----| 



   G
A|--------2---------2---------2---
E|--------3---------3---------3---
G|-2-----------2---------2--------
G|----0------0----0---0----0----0-

A|----2-----| 
E|----3-----| 
G|2---------| 
G|--0---0---| 


G                    D
  Gosto muito de te ver,leãozinho
Em7                  Bm7
   Caminhando sob o sol
C                    F            G
  Gosto  muito de você, leãozinho
                 D
Para desentristecer, leãozinho
Em7                      Bm7
     O  meu coração tão só
C                       F          G
  Basta eu encontrar você no caminho

[Segunda Parte]


   Em                Em/D#
A|-----2--------2--------2--------
E|-----3--------3--------3--------
G|-4-------4---------3-------3----
G|---0---0---0----0----0---0---0--

A|2---------| 
E|3---------| 
G|----------| 
G|---0------| 


G C#m7(5-) A|--------2---------2---------2--- E|--------3---------3---------3--- G|-2-----------2---------1-------- G|----0------0----0---0----0----0- A|----2-----| E|----3-----| G|1---------| G|--0---0---| C7M Em7 A|-------2---------2---------2--- E|-------0---------0---------0--- G|-0----------0---------2-------- G|----0-----0---0----0----0----0- A|----2------| E|----0------| G|2----------| G|--0---0----| Am7 D A|-------0---------0---------0--- E|-------0---------0---------2--- G|-0----------0---------2-------- G|----0-----0---0----0----2----2- A|----0------| E|----2------| G|2----------| G|--2---2----| Em Em/D# Um filhote de leão, raio da G C#m7(5-) manhã C7M Em7 Arrastando o meu olhar como um Am D imã Em Em/D# G O meu coração é o sol pai de C#m7(5-) toda cor C7M Em7 Quando ele lhe doura a pele ao Am D léu [Terceira Parte] G D Gosto de te ver ao sol, leãozinho Em7 Bm7 De te ver entrar no mar C F G Tua pele, tua luz, tua juba D Gosto de ficar ao sol, leãozinho Em7 Bm7 De molhar minha juba C F G De estar perto de você e entrar numa [Segunda Parte] Em Em/D# Um filhote de leão, raio da G C#m7(5-) manhã C7M Em7 Arrastando o meu olhar como um Am D imã Em Em/D# G O meu coração é o sol pai de C#m7(5-) toda cor C7M Em7 Quando ele lhe doura a pele ao Am D léu [Terceira Parte] G D Gosto de te ver ao sol, leãozinho Em7 Bm7 De te ver entrar no mar C F G Tua pele, tua luz, tua juba D Gosto de ficar ao sol, leãozinho Em7 Bm7 De molhar minha juba C F G De estar perto de você e entrar numa
Composição: Caetano VelosoColaboração e revisão: Gustavo Vaz
Videoaula O LEÃOZINHO - Caetano Veloso | COMO TOCAR UKULELE (aula 20)