busca Menu

Havana

Camila Cabello

Tom: Gm (forma dos acordes no tom de Em) Capotraste na 3ª casa
[Introdução 2x] Em  C  B7

[Dedilhado]
Parte 1 de 2
         Em     C      B7
E|---0-0------------------------------------|
B|---0-0------1------0-----1-0--------------|
G|---0-0------0------2----------------------|
D|----------2------1------------------------|
A|--------3------2-------2------------------|
E|-0----------------------------------------|

Parte 2 de 2
         Em     C      B7
E|---0-0------------------------------------|
B|---0-0------1------0-----0-0--------------|
G|---0-0------0------2-----2-2--------------|
D|----------2------1-------1-1--------------|
A|--------3------2-------2------------------|
E|-0----------------------------------------|

[Refrão]

   Em           C
Havana, ooh na na
B7
   Half of my heart is in
   Em          C
Havana Ooh na na
B7
   He took me back to East
   Em             C
Atlanta Oh na na na
B7                           Em
   All but my heart is in Havana
         C               B7
There's somethin' 'bout his manners

Havana, ooh na na

[Refrão]

Parte 1 de 2
         Em     C      B7
E|---0-0------------------------------------|
B|---0-0------1------0-----1-0--------------|
G|---0-0------0------2----------------------|
D|----------2------1------------------------|
A|--------3------2-------2------------------|
E|-0----------------------------------------|


Parte 2 de 2 (Variação)
         Em     C      B7
E|---0-0------------------------------------|
B|---0-0------1-----------------------------|
G|---0-0------0-----------------------------|
D|----------2-------------------------------|
A|--------3------2--------------------------|
E|-0----------------------------------------|

[Primeira Parte]
    Em
He didn't walk up with that
 C        B7
How you doin'?
    Em
He said there’s a lot of girls
C         B7
I can do with
    Em             C       B7
I knew him forever in a minute
     Em              C       B7
And papa says he got malo in him

He got me feelin' like

[Pré-refrão]

Em    C       B7
Ooh, ooh, ooh oh oh oh
                  Em
I knew it when I met him
   C             B7
I loved him when I left him

Got me feelin' like
Em    C       B7
Ooh, ooh, ooh oh oh oh
                   Em
And then I had to tell him
   C       B7
I had to  go, oh na na na na na

[Refrão]

   Em           C
Havana, ooh na na
B7
   Half of my heart is in
   Em          C
Havana Ooh na na
B7
   He took me back to East
   Em             C
Atlanta Oh na na na
B7                           Em
   All but my heart is in Havana
    C            B7
My heart is in Havana

Havana, ooh na na

[Segunda Parte]

    Em
I knew I was there
        C        B7
When I read the sign
    Em
I knew it was him
         C             B7
When he hugged from behind
     Em
Now he puts in work
         C         B7
But he's in the streets
      Em
Now this is the part
         C          B7
That my daddy told me

He got me feelin' like

[Pré-refrão]

Em    C       B7
Ooh, ooh, ooh oh oh oh
                  Em
I knew it when I met him
   C             B7
I loved him when I left him

Got me feelin' like
Em    C       B7
Ooh, ooh, ooh oh oh oh
                   Em
And then I had to tell him
   C       B7
I had to  go, oh na na na na na

[Refrão]

   Em           C
Havana, ooh na na
B7
   Half of my heart is in
   Em          C
Havana Ooh na na
B7
   He took me back to East
   Em             C
Atlanta Oh na na na
B7                           Em
   All but my heart is in Havana
    C            B7
My heart is in Havana

Havana, ooh na na


Em        C         B7
Ooh na na,   oh na na na

Take me back, back, back like
Em        C         B7
Ooh na na,   oh na na na

Take me back, back, back like
Em        C         B7
Ooh na na,   oh na na na

Take me back, back, back like
Em        C         B7
Ooh na na,   oh na na na

Take me back, back, back like

[Solo 4x] Em  C  B7

Parte 1 de 2
E|-------------10-------------------------------------|
B|----------------13-11-13-10-------------------------|
G|----12-10-12----------------------------------------|
D|-12-------------------------------------------------|
A|----------------------------------------------------|
E|----------------------------------------------------|

Parte 2 de 2
E|-----------------10---------------------------------|
B|--------------------13-11-13-10---------------------|
G|----10-12--10-12----------------11------------------|
D|-12-------------------------------------------------|
A|----------------------------------------------------|
E|----------------------------------------------------|

Repete Parte 1 de 2
E|-------------10-------------------------------------|
B|----------------13-11-13-10-------------------------|
G|----12-10-12----------------------------------------|
D|-12-------------------------------------------------|
A|----------------------------------------------------|
E|----------------------------------------------------|

Repete Parte 2 de 2
E|-----------------10---------------------------------|
B|--------------------13-11-13-10---------------------|
G|----10-12--10-12----------------11------------------|
D|-12-------------------------------------------------|
A|----------------------------------------------------|
E|----------------------------------------------------|

[Refrão]

   Em           C
Havana, ooh na na
B7
   Half of my heart is in
   Em          C
Havana Ooh na na
B7
   He took me back to East
   Em             C
Atlanta Oh na na na
B7                           Em
   All but my heart is in Havana
    C            B7
My heart is in Havana

Havana, ooh na na

[Solo 4x] Em  C  B7

Parte 1 de 2
E|-------------10-------------------------------------|
B|----------------13-11-13-10-------------------------|
G|----12-10-12----------------------------------------|
D|-12-------------------------------------------------|
A|----------------------------------------------------|
E|----------------------------------------------------|

Parte 2 de 2
E|-----------------10---------------------------------|
B|--------------------13-11-13-10---------------------|
G|----10-12--10-12----------------11------------------|
D|-12-------------------------------------------------|
A|----------------------------------------------------|
E|----------------------------------------------------|

Repete Parte 1 de 2
E|-------------10-------------------------------------|
B|----------------13-11-13-10-------------------------|
G|----12-10-12----------------------------------------|
D|-12-------------------------------------------------|
A|----------------------------------------------------|
E|----------------------------------------------------|

Repete Parte 2 de 2
E|-----------------10---------------------------------|
B|--------------------13-11-13-10---------------------|
G|----10-12--10-12----------------11------------------|
D|-12-------------------------------------------------|
A|----------------------------------------------------|
E|----------------------------------------------------|

Havana, ooh na na

Clipes