busca

220 Volts

Capital Inicial

Tom: G
Intro. Riff
Riff.
E|------------------------------|
B|-----------------------2p0----|
G|-----------------------2p0----|
D|----------------------------2-|
A|----------------------------2-|
E|-0-2-0-3-0--0-3-0-5-0---------|

Em
Mãos no volante           
Duzentos metros atras     Riff
E5
pés no espelho 
duzentos cigarros depois  Riff

B5
Dedos na parede
    C5
Tubarões na minha rede 
     B5
Gasolina mata a sede
  G5      A5      E5
Duzentos e vinte volts    Riff

Em
freios sem controle
milhões de cilindradas na mão   Riff
Em
Fogo no asfalto
Queimando borracha e metal  Riff

B5
Dedos na parede
    C5
Tubarões na minha rede 
     B5
Gasolina mata a sede
  G5     A5       E5
Duzentos e vinte volts    Riff

Em
Cento e dez, Cento e trinta
         A
megaheats, meia pista
       Em           B5
Decibéis, mega bytes
  C5        D5    Em
Duzentos e vinte volts

E|------------------------------|
B|-----------------------0------|
G|-----------------------2bp0---|
D|----------------------------2-|
A|----------------------------2-|
E|-0-2-0-3-0--0-3-0-5-0---------|

B5
Dedos na parede
    C5
Tubarões na minha rede 
     B5
Gasolina mata a sede
  G5      A5      E5
Duzentos e vinte volts   

Clipes

Cifra Club Pro

Aproveite o Cifra Club com benefícios exclusivos e sem anúncios
7 dias grátis
Cifra Club Pro
Aproveite o Cifra Club com benefícios exclusivos e sem anúncios
7 dias grátis