busca

À Sua Maneira

Capital Inicial

Tom: Bm
[Intro] Bm  G5  D  A 
        Bm  G5  D  A 
        Bm  G5  D  A 
        Bm  G5  D  A 

[Riff da Intro]

E|-----------------------------------------------------|
B|-10/12--12-x-x-12/14--14-x-x-14\---------------------|
G|-----------x-x-----------x-x-------------------------|
D|--7/-9---9-x-x--9/11--11-x-x-11\---------------------|
A|-----------------------------------------------------|
E|-----------------------------------------------------|

[Primeira Parte]

Bm        G5  D     
Ela dormiu   
      A             Bm   G5  D  A
No calor dos meus braços
  Bm         G5        D     
E eu acordei    sem saber 
   A       Bm  G5  D  A
Se era um sonho
   Bm            G5  D
Algum tempo atrás   
    A           Bm  G5  D  A
Pensei em te dizer
        Bm       G5  
Que eu nunca caí 
     D        A          Bm  G5  D  A
Nas suas armadilhas de amor

[Refrão]

 Bm          G5  D    
Naquele amor   
   A     Bm   G5  D  A
À sua maneira
    Bm               G5  D
Perdendo o meu tempo   
   A       Bm   G5  D  A
A noite inteira

[Base Primeiro Solo] Bm  G5  D  A 
                     Bm  G5  D  A 
                     Bm  G5  D  A 
                     Bm  G5  D  A 

Parte 1 de 4

E|-------------------------------------------------|
B|-------------------------------------------------|
G|-------------------------------------------------|
D|-------------------------------------------------|
A|-/2-2-4-4h5~--/5-5-4--2p0----------2~--p0h2p0----|
E|---------------------------0h2--5----------------|

Parte 2 de 4

E|-------------------------------------------------|
B|-------------------------------------------------|
G|----------------------------7~--7----------------|
D|------------------------9---7~--7----------------|
A|-x-x-2-2-4-4h5--7/9~--9---9-------x-x------------|
E|-------------------------------------------------|

Parte 3 de 4

E|-------------------------------------------------|
B|-------------------------------------------------|
G|-----7--7--x-x-----7--x-x-7~~--------------------|
D|-----7--7--x-x-----7--x-x-7~~--------------------|
A|-7h9-----------7h9-------------------------------|
E|-------------------------------------------------|

Parte 4 de 4

E|-------------------------------------------------|
B|-------------------------------------------------|
G|-------------------------------------------------|
D|-------------------------------------------------|
A|-7b8r7p5--7b8r7--5\4\2~~-------------------------|
E|-------------------------------------------------|

[Segunda Parte]

 Bm          G5  D 
Não mandarei   
 A         Bm   G5  D  A
Cinzas de rosas
     Bm             G5  D
Nem penso em contar   
    A         Bm   G5  D  A
Os nossos segredos

[Refrão]

 Bm          G5  D    
Naquele amor   
   A     Bm   G5  D  A
À sua maneira
    Bm               G5  D
Perdendo o meu tempo   
   A       Bm   G5  D  A
A noite inteira

[Base Segundo Solo] Bm  G5  D  A 
                    Bm  G5  D  A 
                    Bm  G5  D  A 
                    Bm  G5  D  A 

Parte 1 de 4

E|-----------------------------------------------------|
B|-/12-----10~-----12~------10~------12----10\---------|
G|------11------11-------11-------11----11-------------|
D|-----------------------------------------------------|
A|-----------------------------------------------------|
E|-----------------------------------------------------|

Parte 2 de 4

E|-----------------------------------------------------|
B|-----------------------------------------------------|
G|-/9~---7~---7h9~---7-7-7-6-7-6\----------------------|
D|-----------------------------------------------------|
A|-----------------------------------------------------|
E|-----------------------------------------------------|

Parte 3 de 4

E|-/12---12-10~---10-10h12~---10-10-10-9h10-9----------|
B|--------------------------------------------10-------|
G|-----------------------------------------------------|
D|-----------------------------------------------------|
A|-----------------------------------------------------|
E|-----------------------------------------------------|

Parte 4 de 4

E|-----------------------------------------------------|
B|-10/12--12-12-12\7--7-7-7/10--10-10-10\5--5-5-5/7----|
G|-----------------------------------------------------|
D|-----------------------------------------------------|
A|-----------------------------------------------------|
E|-----------------------------------------------------|

Parte 4 de 4

E|-----------------------------------------------------|
B|-7-7-7\3--3-3-2h3-2-3--------------------------------|
G|----------------------4~-----------------------------|
D|-----------------------------------------------------|
A|-----------------------------------------------------|
E|-----------------------------------------------------|

[Primeira Parte]

Bm       
Ela dormiu   
    
No calor dos meus braços
    
E eu acordei    sem saber 
               G5  D  A
Se era um sonho
   Bm            G5  D
Algum tempo atrás   
    A           Bm  G5  D  A
Pensei em te dizer
        Bm       G5  
Que eu nunca caí 
     D        A          Bm  G5  D  A
Nas suas armadilhas de amor

[Refrão]

 Bm          G5  D    
Naquele amor   
   A     Bm   G5  D  A
À sua maneira
    Bm               G5  D
Perdendo o meu tempo   
   A       Bm   G5  D  A
A noite inteira

 Bm          G5  D    
Naquele amor   
   A     Bm   G5  D  A
À sua maneira
    Bm               G5  D
Perdendo o meu tempo   
   A       Bm   G5  D  
A noite inteira
   A       Bm   G5  D  
A noite inteira
   A       Bm   G5  D  
A noite inteira
   A       Bm   G5  D  
A noite inteira
   A       Bm   G5  D  
A noite inteira

( Bm )

( Bm  G5  D  A )
( Bm  G5  D  A )
( Bm  G5  D  A )
( Bm  G5  D  A )

Clipes