busca

Depois da Meia Noite

Capital Inicial

Tom: G
[Intro] C D4(9)  Em
        C D4(9)  Em
        C D4(9)  Em
        C D4(9)  Em

[Riff]

E|---5---5---5---5/7---7--8---8------|
B|-----3---3---3-----5------7--------|
G|-----------------------------------| (4x)
D|-------------------------------8---|
A|------------------7----------------|
E|----------5--------------------8---|

C
Dias de verão
   D4(9)
E noites de inverno
    C                   D4(9)
A cidade as vezes,é  um inferno
C               D4(9)
Criei então,um universo
     F
Onde tudo era perfeito
                  Em
E feito prá  nós dois

   C
Passamos muito tempo
            D4(9)
Sentados na calçada
  C
Falando sobre tudo
           D4(9)
E não dizendo nada
C
Seu sorriso
                   D4(9)
Vale mais que mil palavras
F
Deixa que o futuro
            Em
Fica prá  depois

[Refrão]

        C        D4(9)   G
Depois da meia-noite
        C                     D4(9)
Nós ascendemos as luzes da cidade
       Bm       
Nos abraçamos
    Em          G
E ficamos juntos
     C       D4(9)
Até nascer o sol

C
Noites de verão
  D4(9)
E dias de inverno
C
Poucos minutos
      D4(9)
Parecem eternos
C
Você sabe
      D4(9)
E eu não sei mentir
 F
Esse mundo perfeito
 Em
Nunca vai existir

     C
Não quero esqueçer
   D4(9)
As noites viradas
  C
Falando sobre o mundo
  D4(9)
Até a madrugada
C
Nos seus olhos
   D4(9)
Eu vejo a verdade
F
Faça o que você  fizer
                    Em
Diga o que você  quiser

        C        D4(9)
Depois da meia-noite
        C                     D4(9)
Nós ascendemos as luzes da cidade
        
Nos abraçamos
    Em      G
E ficamos juntos
      C       D4(9)
Até nascer o sol

[Solo]
         C     D           G           Em
E|----------------------10----------------|
B|-5-7h8-7-8-8/10-10/12----12-10----10----|
G|-------------------------------12----12-|
D|----------------------------------------|
A|----------------------------------------|
E|----------------------------------------|

            C     D                  Em
E|-10/12-12-10-8-7-8-7-8-7-5-8-7-8-7-5-8-7-5h7-7p5---5---10b12~~~---|
B|-------------------------------------------------8---8------------|
G|------------------------------------------------------------------|
D|------------------------------------------------------------------|
A|------------------------------------------------------------------|
E|------------------------------------------------------------------|

C                D4(9)
Por quanto tempo só nós dois ? 
C               D4(9)     F       Em
Por quanto tempo só nós dois ?

[Refrão]

        C        D4(9)   G
Depois da meia-noite
             C                D4(9)
Nós ascendemos as luzes da cidade
        Bm
Nos abraçamos
    Em            G
E ficamos juntos
     C       D4(9)
Até nascer o sol

              C        D4(9)
Depois da meia noite
              C        D4(9)
Depois da meia noite
              C        D4(9)
Depois da meia noite
              C        D4(9)     Em
Depois da meia noite

Clipes