busca

Eu Adoro Minha Televisão

Capital Inicial

Tom: G
intro: Em

e|-------------------------
B|-------------------------
G|-------------------------2x
D|-------2-----------------
A|-------------------------
E|--0-3-------0-3--0-------


      Em
Eu adoro a minha televisão
Ela me conta as coisas como elas são
Se as coisas vão mal
É só mudar de canal
     Em
Eu adoro minha televisão
Ela é: meus olhos, meu coração
Estando triste ou contente
O que eu sinto, ela sente
       Am
Eu prefiro ficar
        Em
Deitado no sofá
           C           D
Olhando a maravilhosa vida dos outros
   A
Passar
     Em
Eu adoro minha televisão
Diante dela eu fico sem ação
Ela me faz muito bem
Eu não preciso de mais ninguém
      Em
Eu adoro a minha televisão
Felicidade apertando um botão
Vejo o que eu nunca vou ter
Vejo quem eu nunca vou ser
                       
Eu prefiro ficar......

solo: Em

e|-------------------------
B|-------------------------
G|-------------------------2x
D|-------2-----------------
A|-------------------------
E|--0-3-------0-3--0-------

Clipes

Cifra Club Pro

Aproveite o Cifra Club com benefícios exclusivos e sem anúncios
7 dias grátis
Cifra Club Pro
Aproveite o Cifra Club com benefícios exclusivos e sem anúncios
7 dias grátis