Ab
234
466544
Bb
234
688766
Bb5
134
X133XX
Cm
234
X35543
Eb
234
X65343
Eb5
134
X688XX
Tom: G
[Intro] Cm  Ab  Bb

(Riff)

#1t1#Parte 1 de 4
 Cm
#1t2#E|------------------------------------------|
B|------------------------------------------|
G|-3-3-3-X-3-5-5~-3-3-3-X-3-5-5~------------|
D|------------------------------------------|
A|------------------------------------------|
E|------------------------------------------|#/1t2##/1t1#

#2t1#Parte 2 de 4
  Ab            Bb
#2t2#E|------------------------------------------|
B|------------------------------------------|
G|--3-3-3-X-3-5-5/7~------------------------|
D|------------------------------------------|
A|------------------------------------------|
E|------------------------------------------|#/2t2##/2t1#

#3t1#Parte 3 de 4
 Cm
#3t2#E|------------------------------------------|
B|------------------------------------------|
G|-3-3-3-X-3-5-5~-3-3-3-X-3-5-5~------------|
D|------------------------------------------|
A|------------------------------------------|
E|------------------------------------------|#/3t2##/3t1#

#4t1#Parte 4 de 4
  Ab           Bb
#4t2#E|------------------------------------------|
B|------------3-----------------------------|
G|--3-3-3-X-3---5-3-3h5~--------------------|
D|------------------------------------------|
A|------------------------------------------|
E|------------------------------------------|#/4t2##/4t1#

[Primeira Parte]

         Cm
Vocês esperam uma intervenção divina
                     Ab                        Bb
Mas não sabem que o tempo agora está contra vocês

          Cm
Vocês se perdem no meio de tanto medo
                     Ab                          Bb
De não conseguir dinheiro pra comprar sem se vender

        Cm
E vocês armam seus esquemas ilusórios
                 Ab                        Bb
Continuam só fingindo que o mundo ninguém fez

         Cm
Mas acontece que tudo tem começo
                      Ab                       Bb
E se começa, um dia acaba, eu tenho pena de vocês

( Cm   Bb5   Cm   Eb5 )
( Cm   Bb5   Cm   Eb5 )

(Riff)

#5t1#Parte 1 de 4
 Cm
#5t2#E|------------------------------------------|
B|------------------------------------------|
G|-3-3-3-X-3-5-5~-3-3-3-X-3-5-5~------------|
D|------------------------------------------|
A|------------------------------------------|
E|------------------------------------------|#/5t2##/5t1#

#6t1#Parte 2 de 4
  Ab            Bb
#6t2#E|------------------------------------------|
B|------------------------------------------|
G|--3-3-3-X-3-5-5/7~------------------------|
D|------------------------------------------|
A|------------------------------------------|
E|------------------------------------------|#/6t2##/6t1#

#7t1#Parte 3 de 4
 Cm
#7t2#E|------------------------------------------|
B|------------------------------------------|
G|-3-3-3-X-3-5-5~-3-3-3-X-3-5-5~------------|
D|------------------------------------------|
A|------------------------------------------|
E|------------------------------------------|#/7t2##/7t1#

#8t1#Parte 4 de 4
  Ab           Bb
#8t2#E|------------------------------------------|
B|------------3-----------------------------|
G|--3-3-3-X-3---5-3-3h5~--------------------|
D|------------------------------------------|
A|------------------------------------------|
E|------------------------------------------|#/8t2##/8t1#

(Riff 2)

#9t1#Parte 1 de 3
 Cm
#9t2#E|------------------------------------------|
B|------------------------------------------|
G|-3-3-3-X-3-5-5~-3-3-3-X-3-5-5~------------|
D|------------------------------------------|
A|------------------------------------------|
E|------------------------------------------|#/9t2##/9t1#

#10t1#Parte 2 de 3
  Ab             Bb
#10t2#E|------------------------------------------|
B|--------------3---------------------------|
G|--3-3-3-X-3-5---5-3-3h5p3-----------------|
D|--------------------------5~--------------|
A|------------------------------------------|
E|------------------------------------------|#/10t2##/10t1#

#11t1#Parte 3 de 3
  Ab               Bb
#11t2#E|------------------------------------------|
B|------------------------------------------|
G|--3-3-3-X-3-5-3h5~------------------------|
D|------------------------------------------|
A|------------------------------------------|
E|------------------------------------------|#/11t2##/11t1#

[Segunda Parte]

        Cm
E as ameaças de ataque nuclear
           Ab                         Bb
Bombas de nêutrons não foi Deus quem fez

            Cm
Alguém, alguém um dia vai se vingar
           Ab                     Bb
Vocês são vermes, pensam que são reis

           Cm
Não quero ser como vocês
Ab                 Bb
   Eu não preciso mais

Cm
   Eu já sei o que tenho que saber
Ab           Bb
   E agora, tanto faz

( Cm   Ab   Bb )
( Cm   Eb   Bb )
( Cm   Ab   Bb )

[Solo]

#12t1#Parte 1 de 4
Cm Eb Bb
#12t2#E|------------------------------------------|
B|------------------------------------------|
G|------------------------------------------|
D|-5~--3-5~--3-5~--5-3----------------------|
A|------------------------------------------|
E|------------------------------------------|#/12t2##/12t1#

#13t1#Parte 2 de 4
Cm Eb Bb
#13t2#E|------------------------------------------|
B|------------------------------------------|
G|------------------------------3-----------|
D|-5--3-5--3-3-3-3h5---5-3--3/5-------------|
A|------------------------------------------|
E|------------------------------------------|#/13t2##/13t1#

#14t1#Parte 3 de 4
  Cm               Ab           Bb
#14t2#E|------------------------------------------|
B|-4-3-4-3-4p3------------------------------|
G|-------------h5--3-3h5-3h5p3---3----------|
D|-----------------------------5------------|
A|------------------------------------------|
E|------------------------------------------|#/14t2##/14t1#

#15t1#Parte 4 de 4
 Cm                Ab     Bb
#15t2#E|------------------------------------------|
B|------------------------------------------|
G|-------------3h5\-------------------------|
D|-3-3-3-3-3h5------3/5-4-3\-0h1p0----------|
A|------------------------------------------|
E|------------------------------------------|#/15t2##/15t1#

[Terceira Parte]

        Cm
Três crianças sem dinheiro e sem moral
                    Ab               Bb
Não ouviram a voz suave que era uma lágrima

           Cm
E se esqueceram de avisar pra todo mundo
                   Ab               Bb
Ela talvez tivesse nome, e era Fátima

        Cm
E de repente o vinho virou água
       Ab              Bb
E a ferida não cicatrizou

           Cm
E o limpo se sujou e no terceiro dia
     Ab     Bb
Ninguém ressuscitou

( Cm  Ab  Bb )
( Cm  Ab  Bb )
( Cm  Ab  Bb )
( Cm  Ab  Bb )
( Cm  Ab  Bb )

(Riff Final)

#16t1#Parte 1 de 4
Cm
#16t2#E|------------------------------------------|
B|------------------------------------------|
G|-3-3-3-X-3-5-5~-3-3-3-X-3-5-5~------------|
D|------------------------------------------|
A|------------------------------------------|
E|------------------------------------------|#/16t2##/16t1#

#17t1#Parte 2 de 4
  Ab             Bb
#17t2#E|------------------------------------------|
B|------------------------------------------|
G|--3-3-3-X-3-5-5~--------------------------|
D|------------------------------------------|
A|------------------------------------------|
E|------------------------------------------|#/17t2##/17t1#

#18t1#Parte 3 de 4
Cm
#18t2#E|------------------------------------------|
B|------------------------------------------|
G|-3-3-3-X-3-5-5~-3-3-3-X-3-5-5~------------|
D|------------------------------------------|
A|------------------------------------------|
E|------------------------------------------|#/18t2##/18t1#

#19t1#Parte 4 de 4
  Ab               Bb   Cm
#19t2#E|----------------------3-------------------|
B|----------------------4-------------------|
G|--3-3-3-X-3-5-3h5~----5-------------------|
D|----------------------5-------------------|
A|----------------------3-------------------|
E|------------------------------------------|#/19t2##/19t1#
Composição: Fl / Renato RussoColaboração e revisão: Gabriel Silva
Videoaula Fátima (aula de violão completa)