busca

Gratidão

Capital Inicial

Tom: C
[Intro] Riff1 + Riff2(2x) + Riff3(2x)

Riff 1
E|-------------------------------------|-----------------------------------|
B|-----1---------3---------5---5h6p5---|-----1---------3---------5---8-6-5-|
G|---2---2-----4---4-----5---5-------5-|---2---2-----4---4-----5---5-------|
D|-3-------3s5-------5s7---------------|-3-------3s5-------5s7-------------|
A|-------------------------------------|-----------------------------------|
E|-------------------------------------|-----------------------------------|

Riff 2
E|---------------------------------|
B|-----1-------1-------3-------5---|
G|---2---2---2---2---4---4---5---5-|
D|-3-------3-------5-------7-------|
A|---------------------------------|
E|---------------------------------|

Riff 3
E|-------------------5-3--|
B|-1-3-1-3---1-0-1-3------|

(Riff2)
F              G                    Am
Depois de tanto tempo eu continuo de pé
F              G                  Am
Depois de tanto tempo me voltou a fé
F       G                Am
Que eu tinha, perdido em mim
F               G
Eu seu que é difícil
          Am
Não é tão simples assim
F             G    Am
 Eu não conseguia respirar
F            G         Am      F
 Parecia meu fim eu ia me afogar

[Refrão]

 C   G           Am       F
  Sozinho eu não ia conseguir
 C        G        Am             F
  Você mostrou o caminho por onde dava pra ir
 C       G          Am     F
  Me ajudou a levantar depois de eu cair
 C       G          Am     F
  Me ajudou a levantar depois de eu cair

(Riff2)2x

(Riff2) ou os acordes (F G Am)
Tem dias que parecem conspiração
Portas se fecham e todos dizem não
E nada faz passar a dor
                                  F
De se sentir só, só mais um perdedor

[Refrão]

 C   G           Am       F
  Sozinho eu não ia conseguir
 C        G        Am             F
  Você mostrou o caminho por onde dava pra ir
 C       G          Am     F
  Me ajudou a levantar depois de eu cair
 C       G          Am     F
  Me ajudou a levantar depois de eu cair

(Riff1)

(Riff2)              (F G Am)
As vezes acho que é perseguição
Não ter nada vivendo em solidão
Por isso fiz essa canção
                           F
Parece bobagem mas é gratidão

[Refrão]

 C   G           Am       F
  Sozinho eu não ia conseguir
 C        G        Am             F
  Você mostrou o caminho por onde dava pra ir
 C       G          Am     F
  Me ajudou a levantar depois de eu cair
 C       G          Am     F
  Me ajudou a levantar depois de eu cair

(Riff2)2x

termina com uma guitarra fazendo o Riff2
e a outra fazendo o Riff3 inúmeras vezes

Clipes