busca

Love Song One

Capital Inicial

Tom: C
(intro)
E|-5----5----3-----3---|-5----5----3-----3---|-5----5----3-----3---|-5----5----3-----3---|
B|---5----5-----5----5-|---5----5-----5----5-|---6----6-----5----5-|---5----5-----5----5-|
G|---------------------|---------------------|---------------------|---------------------|
D|---------------------|---------------------|---------------------|---------------------|
A|---------------------|---------------------|---------------------|---------------------|
E|---------------------|---------------------|---------------------|---------------------|

A5   C5     A5     C5
Você me faz Pensar demais
A5     C5     A5    C5
Sempre quando Quero tentar
A5          C5             A5    C5     A5    G5 F5
Ser só mais um Que quer você

           D5          C5
Eu não consigo entender
          A5       G5  F5
Porque eu quero você
         D5          C5
Eu não consigo entender

A5    C5    A5     C5
Você me faz Deixar pra trás
A5   C5      A5     C5  A5         C5           A5    C5     A5    G5 F5
Tudo que faz lembrar,   Como é viver sem ter você

          D5          C5
Eu não consigo entender
          A5       G5  F5
Porque eu quero você
          D5          C5
Eu não consigo entender
E|-5----5----3-----3---|-5----5----3-----3---|-5----5----3-----3---|-5----5----3-----3---|
B|---5----5-----5----5-|---5----5-----5----5-|---6----6-----5----5-|---5----5-----5----5-|
G|---------------------|---------------------|---------------------|---------------------|
D|---------------------|---------------------|---------------------|---------------------|
A|---------------------|---------------------|---------------------|---------------------|
E|---------------------|---------------------|---------------------|---------------------|

A5     C5       A5     C5
Eu não sei mais voltar atrás
A5    C5     A5    C5
Nunca pensei Quero parar
A5            C5             A5    C5     A5    G5 F5
De ser mais um que quer você

            D5          C5
Eu não consigo entender
          A5       G5  F5
Porque eu quero você
           D5          C5
Eu não consigo entender
E|-5----5----3-----3---||-----8---8--10---8------10---10--12---10-|----------------------|
B|---5----5-----5----5-||-5/7---7-------7----7/9----9--------9----|-12/13...-12...-13...-|
G|---------------------||-----------------------------------------|----------------------|
D|---------------------||-----------------------------------------|----------------------|
A|---------------------||-----------------------------------------|----------------------|
E|---------------------||-----------------------------------------|----------------------|

E|---------------------------------|
B|-8/10...-8/10...-8/10...-8/10...-|
G|---------------------------------|
D|---------------------------------|
A|---------------------------------|
E|---------------------------------|

Você me faz Pensar demais    
Sempre quando Quero tentar 
A5          C5             A5    C5     A5    G5 F5
Ser só mais um Que quer você

          D5          C5
Eu não consigo entender
         A5       G5  F5
Porque eu quero você
         D5          C5
Eu não consigo entender
         A5       G5  F5
Porque eu quero você
         D5          C5
Eu não consigo entender
          A5       G5  F5
Porque eu quero você
          D5          C5
Eu não consigo entender
          A5
Porque eu quero você

Clipes