Me Encontra

Capital Inicial

A
123
X02220
A5
12
X022XX
B
234
X24442
B11
234
X24452
C#7M
234
X46564
C#m
234
X46654
E5
12
022XXX
F#
234
244322
G#
234
431114
Tom: G
#1t1# C#7M   E5    A5     B    A    G#  
#1t2#E|------|------|------|----|----|-----|
B|------|------|------|----|----|-----|
G|-6-6-6|-9-9-9|------|----|----|-----|
D|-6-6-6|-9-9-9|-7-7-7|-9-9|-7-7|-6-6-|
A|-4-4-4|-7-7-7|-7-7-7|----|----|-----|
E|------|------|-5-5-5|-7-7|-5-5|-4-4-|#/1t2##/1t1#

#2t1#   Riff
#2t2#E|------------------|----------|
B|-10-10-10-10-9----| 10-9-----|
G|--------------11-9|-----11-9-|
D|------------------|----------|
A|------------------|----------|
E|------------------|----------|#/2t2##/2t1#

#3t1##3t2#E|---------------------------------|
B|-10-10-10-10-9-10-10~12-10-9-10-9|
G|---------------------------------|
D|---------------------------------|
A|---------------------------------|
E|---------------------------------|#/3t2##/3t1#

#4t1##4t2#E|-------------------|---------|-------------------------|
B|-10-10-10-10-9-----| 10-9-----|-10-10-10-10-9-10-10~12-|
G|---------------11-9|-----11-9|-------------------------|
D|-------------------|---------|-------------------------|
A|-------------------|---------|-------------------------|
E|-------------------|---------|-------------------------|#/4t2##/4t1#

C#7M                        E5 
Hoje eu vou sair para encontrar o amor
         A5                          B  A G#          
Que eu espero há tanto tempo e ainda não rolou
   C#7M                          E5      
O vento diz que é hoje em meio à multidão
       A5                           B A G# 
Que eu vou encontrar a dona do meu coração

      C#7M    E5 
E aí sempre
A5                                             C#7M    E5   
Sorrir e chorar, e ter alguém pra compartilhar sempre
A5                                     C#7M    E5 
Viver para alguém que me ama e dividir sempre
A5
Felicidade e amor

            C#m E5     B11              A5
Então me encontra  ou deixa eu te encontrar
            C#m E5     B11              A5
       Me encontra ou deixa eu te encontrar
            C#m E5     B11              A5
       Me encontra ou deixa eu te encontrar
            C#m E5     B11              A5
       Me encontra ou deixa eu te encontrar

C#7M           E5 
Eu não conheço todas as flores
A5                       B A G# 
Mas vou mandar todas que eu puder
C#7M           E5
Vivemos tempos de loucos amores
A5                       B A G#
Só é feliz quem sabe o que quer

REFRÃO
      C#m E5     B11              A5
Me encontra  ou deixa eu te encontrar
      C#m E5     B11              A5
Me encontra ou deixa eu te encontrar
      C#m E5     B11              A5
Me encontra ou deixa eu te encontrar
      C#m E5     B11              A5
Me encontra ou deixa eu te encontrar

#5t1#SOLO (BASE DO REFRÃO)
#5t2#E|-----------------|-----------------|
B|--12-12-10-9-10-9|--12-12-10-9-10-9|
G|~9---------------|~9---------------|
D|-----------------|-----------------|
A|-----------------|-----------------|
E|-----------------|-----------------|#/5t2##/5t1#

#6t1##6t2#E|------------------------------|
B|------12-----12-----12----12--|
G|-11-13--11-13--11-13--11-13-11|
D|------------------------------|
A|------------------------------|
E|------------------------------|#/6t2##/6t1#

#7t1##7t2#E|------------------------------|
B|------12-----12-----12----12--|
G|-11-13--11-13--11-13--11-13-11|
D|------------------------------|
A|------------------------------|
E|------------------------------|#/7t2##/7t1#

#8t1##8t2#E|-----------------|-----------------|
B|--12-12-10-9-10-9|--12-12-10-9-10-9|
G|~9---------------|~9---------------|
D|-----------------|-----------------|
A|-----------------|-----------------|
E|-----------------|-----------------|#/8t2##/8t1#

#9t1##9t2#E|--------------------7----|
B|--9-9--7-7-4~5~4-7~9--7~9|
G|-9----9------------------|
D|-------------------------|
A|-------------------------|
E|-------------------------|#/9t2##/9t1#

#10t1##10t2#E|---------------------------|---------------------12|
B|--------------------12-----|------12--12-14-12-14--|
G|--9-11-9-11-13-11-13--13-11|-11-13--13-------------|
D|-11------------------------|-----------------------|
A|---------------------------|-----------------------|
E|---------------------------|-----------------------|#/10t2##/10t1#

( C#7M B11 A5 )

C#7M                 (B A G#)
Fico pensando aonde está você

B11                        (A G# F#)
E se você está pensando em me encontrar

C#7M                           (B A G#)
Como sou, aonde estou e aonde quero chegar

B11                                 (A G# F#)
Como sou, como é que vai ser e onde vou te levar

C#7M                        (B A G#)
Mas se você me ver, pode acenar pra mim

B11                          (A G# F#)
Já pensou que louco te encontrar assim?

C#7M                                    (B A G#)
Eu vou na boa, eu vou na fé, eu sei que vou te encontrar

B11                                (A G# F#)
E quando eu te encontrar nós vamos comemorar

      C#m E5     B11              A5
Me encontra  ou deixa eu te encontrar
      C#m E5     B11              A5
Me encontra ou deixa eu te encontrar
      C#m E5     B11              A5
Me encontra ou deixa eu te encontrar
      C#m E5     B11              A5
Me encontra ou deixa eu te encontrar
Composição: Chorão / Thiago CastanhoColaboração e revisão: Érlon SantosJunior AssonsimRenê Augusto