busca

Mil Vezes

Capital Inicial

Tom: C
(afinação D#)

D#||-----------0-------------|-----------0-------------|
A#||-------------------------|-------------------------|
F#||-----5----------5--------|-----5----------5--------|
C#||--7-----7----------7--5--|--5-----5----------5--3--|
G#||-------------------------|-------------------------|
D#||-------------------------|-------------------------|

-----------0-------------|-----------0--------------|-----------0-------------|
-------------------------|--------------------------|-------------------------|
-----5----------5-----5--|-----5----------5---------|-----5----------5-----5--|
--3-----3----------3-----|--3-----3----------3--3h--|--5-----5----------5-----|
-------------------------|--------------------------|-------------------------|
-------------------------|--------------------------|-------------------------|

-----------0-------------|
-------------------------|
-----5----------5-----5--|
--5-----5----------5-----|
-------------------------|
-------------------------|

Am               Gm
Há sempre alguma coisa
Fm
Que esquecemos de dizer
Am                Gm
Os dias nunca são tão longos
Fm
Quanto poderiam ser
Am              Gm
Acho que às vezes
Fm
Compreendo quando tentam me dizer
Am            Gm
Tudo o que acaba
Fm
Antes de acontecer

Am                  Gm
É o que poderia ser
Fm
É o que poderia ser

(solo)

A5                     G5
São tantas faces diferentes
F5
Vindo pela contramão
A5                    G5
Os rostos se confundem
F5
Como pegadas pelo chão
A5                       G5
Mil vezes tentei te encontrar
F5
Mas te perdi na multidão
A5                      G5            F5
Mil vezes tentei te encontrar

( A5 C5 B5 ) (4x)

A5            G5
Nada justifica
F5                E5
Essa minha pressa de chegar
F5                 G5
Todos os caminhos levam
D5             E5
Ao mesmo lugar
A5           G5
Pelas ruas
D5           E5
Cidade morta
A5                  G5
Minha história excrevo
D5               E5
Por linhas tortas

( A5 G5 F5 ) (4x) 

(solo)

A5                 G5
Teu rosto me confunde
F5
Teus olhos têm a cor da solidão
A5                  G5
Mil vezes tentei te encontrar
F5
Mas te perdi na multidão
A5                   G5
Há sempre tantas coisas
F5
Que deixamos de fazer
A5                  G5
Noites... nunca tão longas
F5
Noites... nunca tão longas

(solo 2)

Clipes

Cifra Club Pro

Aproveite o Cifra Club com benefícios exclusivos e sem anúncios
7 dias grátis
Cifra Club Pro
Aproveite o Cifra Club com benefícios exclusivos e sem anúncios
7 dias grátis