busca

Música Urbana

Capital Inicial

A cifras estão na ordem em que a musica é tocada.

Começa so o violão, depois que entra o baixo.
G------------------------------------------------------------
D--------------------------5---------------------------------
A----5-6-8-6-8----5-6-8------5-6-8-6-8----5-6-8-------------- 
E--3------------3-----------------------3--------------------

"Contra todos e contra..."
G---------------------------------------------------------
D---------------------------------------------------------
A-------------------3-3-3-3--5-3-5-3---------------------- 
E---3--3-3--3-3--3----------------------------------------

Toca-se a tablatura acima até a parte que ele canta "os carros passam", na segunda vez,
Depois entra essa tablatura.
G---------------------------------------------------------
D---------------------------------------------------------      2x  
A--------------------3--------------7-5------------------- 
E---5-5-5--3-0---3-5----5-5-5--3-0------7-----------------

"As ruas tem cheiro..."
G---------------------------------------------------------
D---------------------------------------------------------      6x
A--------------------------------------------------------- 
E---5--5-5--5-5--3----------------------------------------

Na setima vez você faz diferente

G---------------------------------------------------------
D---------------------------------------------------------
A----------------3\12------------------------------------- 
E---5--5-5--5-5-------------------------------------------

"Oooohhhh..."
G---------------------------------------------------------
D---------------------------------------------------------      4x  
A--------------------3--------------7-5------------------- 
E---5-5-5--3-0---3-5----5-5-5--3-0------7-----------------

Depois repete tudo novamente

Clipes

Cifra Club Pro

Aproveite o Cifra Club com benefícios exclusivos e sem anúncios
7 dias grátis
Cifra Club Pro
Aproveite o Cifra Club com benefícios exclusivos e sem anúncios
7 dias grátis