busca

O Lado Escuro da Lua

Capital Inicial

Tom: A
E
Sempre tem alguma coisa errada
   A
Às vezes o que sobra é o que nos falta
G#m
Algo que não vemos, não sentimos
C#m
Tudo que não temos, mas nos fingimos
E
Eu quase fiz o que eu queria
   A
Eu quase tive algo que eu podia
G#m
De novo esse quase, esse sempre, esse nada
C#m
Comigo nessa longa e tortuosa estrada

(Refrão)

D        F#m
Correndo como um louco
D            F#m
Falta sempre muito pouco
D          F#m      B
Pra se perder a razão
A           E
De olhos fechados
B          C#m
No meio da sua rua
A             E
Sonhando acordado
B          C#m
No lado escuro da lua
A           E
De olhos fechados
B          C#m
No meio da sua rua
A             E
Sonhando acordado
B          C#m      A
No lado escuro da lua


E
Copo meio cheio, copo meio vazio
  A
O corpo só esquenta quando o ar é frio
G#m
Não quero me lembrar que não faz sentido
C#m
Nem me arrepender de não ter vivido
E
A vida é longa, a vida é curta
  A
Quando todos falam e ninguém me escuta
G#m
Cegos que não sabem para onde vão
C#m
Aqui está mais um nessa multidão

(Refrão)

D        F#m
Correndo como um louco
D            F#m
Falta sempre muito pouco
D          F#m      B
Pra se perder a razão
A           E
De olhos fechados
B          C#m
No meio da sua rua
A             E
Sonhando acordado
B          C#m
No lado escuro da lua
A           E
De olhos fechados
B          C#m
No meio da sua rua
A             E
Sonhando acordado
B          C#m      A
No lado escuro da lua

(Solo)

E|--12--------------------------------------|
B|-----12-------------12----12/14-12--------|
G|--------13--11h13-----13------------13----|
D|------------------------------------------|
A|------------------------------------------|
E|------------------------------------------|

E|--12--------12----14----16----14----------|
B|-----12--------12----12----12----12-------|
G|--------13--------------------------------|
D|------------------------------------------|
A|------------------------------------------|
E|------------------------------------------|

E|--12--------------------------------------|
B|-----12------------12----12/14-12---------|
G|--------13--11h13-----13------------13----|
D|------------------------------------------|
A|------------------------------------------|
E|------------------------------------------|

E|--12----------12----14---16---14--12------|
B|-----12----12----12----12---12------12----|
G|--------13--------------------------------|
D|------------------------------------------|
A|------------------------------------------|
E|------------------------------------------|

E|--12-----|
B|-----12--|
G|---------|
D|---------|
A|---------|
E|---------|

E|--12-----|
B|-----12--|
G|---------|
D|---------|
A|---------|
E|---------|


E
Eu tinha sede, me deram gasolina
A
Não peço nada, me dão menos ainda
G#m
Acho que não entendi direito
  C#m
A perfeição do imperfeito
E
Eu me queixo, eu me arrependo
A
Eu me revolto, eu me rendo
G#m
Querendo o que não podia ter sido
   C#m
Ser feito de aço e não de vidro

(Refrão)

D        F#m
Correndo como um louco
D            F#m
Falta sempre muito pouco
D          F#m      B
Pra se perder a razão
A           E
De olhos fechados
B          C#m
No meio da sua rua
A             E
Sonhando acordado
B          C#m
No lado escuro da lua
A           E
De olhos fechados
B          C#m
No meio da sua rua
A             E
Sonhando acordado
B          C#m      A  E
No lado escuro da lua

Clipes

Cifra Club Pro

Aproveite o Cifra Club com benefícios exclusivos e sem anúncios
7 dias grátis
Cifra Club Pro
Aproveite o Cifra Club com benefícios exclusivos e sem anúncios
7 dias grátis