busca

Onde Começa Você

Capital Inicial

Tom: G#
Intro: 2X

    C   D#  G#
E---3---6---4---‌‌
B---3---6---4---‌‌
G---5---8---5---‌‌
D---5---8---6---‌‌
A---3---6---6---‌‌
E-----------4---‌‌-

Verso:

----------- 1 -----------‌     ‌----------- 2 ------------
    C   D#  G#  Bb    C   D#  G#    C   D#  G#  F     C   D#  G#
E---3---6---4---1----3---6---4----3---6---4---1----3---6---4----‌‌
B---3---6---4---1----3---6---4----3---6---4---1----3---6---4----‌‌
G---5---8---5---3----5---8---5----5---8---5---2----5---8---5----‌‌
D---5---8---6---3----5---8---6----5---8---6---3----5---8---6----‌‌
A---3---6---6---1----3---6---6----3---6---6---3----3---6---6----‌‌
E-----------4----------------4------------4---1------------4----‌‌

1- São cinco horas de uma tarde, as pessoas vem e vão.
2- No meu rosto está escrito, o estado do meu coração.

1- Fazendo o que não pode ser feito, o desejo sufocando a razão.
2- Quais serão as palavras certas, pra que nada disso tenha sido em vão.

Outro:
1- Certas mentiras se tornam verdades, outras nunca vão deixar de ser.
2- Todo amor se confunde em miragem, coisas que nunca vão acontecer.

1- Mas apesar de tudo eu tenho certeza, um dia vamos rir dessa confusão.
2- A distância é tão pequena, pra tudo isso tenha sido em vão.


Refrão: 2X

  ‌------ 1 ------‌ ‌------ 2 ------‌

    G   Bb  F   Dm    G   Bb  C   F
E---3---1---1---5----3---1---3---1----
B---3---1---1---4----3---1---3---1----
G---0---3---2---7----0---3---5---2----
D---0---3---3---7----0---3---5---3----
A---2---1---3---5----2---1---3---3----
E---3-------1--------3-----------1----

1- Eu não sei dizer, quais serão as palavras certas.
2- Eu não sei dizer onde termino, onde começa você.

Obs: na Segunda vez, “A-n-i-m-a-l”, entra os backing-vocals. 
(Quais serão as palavras certas...) 

Solo: (a base é a mesma do verso)
E------------------------------------------------------------------------------
B---8~~-6--4--3--4-----------------------8~~-6--4--3--4------------------------
G-------------------5~~~~--------------------------------5~~~------------------
D------------------------5---6---8~~~~-----------------------5---3---5---1~~~--
A------------------------------------------------------------------------------
E------------------------------------------------------------------------------

E------------------------------------------------------------------------------
B---8~~-6--4--3--4-----------------------8~~~-6---4---3---4---6~~~~~~~~--------
G-------------------5~~~~------------------------------------------------------
D------------------------5---6---8~~~~-----------------------------------------
A------------------------------------------------------------------------------
E------------------------------------------------------------------------------

Clipes