Primeiros Erros

Capital Inicial

A4(7)
12
X02030
Bm7(11)
123
X20230
Bm7(9/11)
123
X20220
D
3
XX0P232
D5(7M/9)
12
XX0220
D5(9)
123
XX0235
D9
110ª2
XX011100
E/D
3
0X0P45X
Em7(13)
12
020020
Em7(9)
123
020032
G/B
123
X20033
G6/B
123
700780
G7M
12
300002
Tom: G
[Intro] D5(9)  D  E/D
        D5(9)  D  E/D
        D9  D5(9/C#)  G6/B
        D9  D5(9/C#)  G6/B

Parte 1 de 2


   D5(9)            D     E/D
E|-5-5--2h5---5-5-5-2-2-2/4-------
B|-3-3------5-------3-3-3/5-5---7-
G|-2-2--------------2-2-2/4---4---
D|-0----------------0-------------
A|--------------------------------
E|--------------------------------

E|4--------| 
B|--5------| 
G|----4----| 
D|---------| 
A|---------| 
E|---------| 



E|---4-----4----------------------
B|-7---5---5----------------------
G|-------4-4----------------------
D|---------0----------------------
A|--------------------------------
E|--------------------------------



   D5(9)            D     E/D
E|-5-5--2h5---5-5-5-2-2-2/4-------
B|-3-3------5-------3-3-3/5-5---7-
G|-2-2--------------2-2-2/4---4---
D|-0----------------0-------------
A|--------------------------------
E|--------------------------------

E|4--------| 
B|--5------| 
G|----4----| 
D|---------| 
A|---------| 
E|---------| 



E|---4-------4--------------------
B|-7---5---7---5------------------
G|-------4-------4----------------
D|--------------------------------
A|--------------------------------
E|--------------------------------


Parte 2 de 2


   D9              D5(9/C#)
E|-0------------------------------
B|-10------10---------10------10--
G|-11--11--11--11--9--9----9--9---
D|-0---0---0---0---0-------0------
A|--------------------------------
E|-----------------9-----9------9-

E|---------| 
B|---------| 
G|9--------| 
D|0--------| 
A|---------| 
E|---------| 



    G/B
E|-------------------------7------
B|---8------8--------8-----8------
G|-7-7---7--7---7--7-7---7-----7--
D|-0-----0------0--0-----0-----0--
A|--------------------------------
E|-7---7------7----7---7-----7----


[Primeira Parte]

D5(9)        D5(7M/9)          D5(9)
      Meu caminho é cada manhã
         D5(7M/9)          Bm7(11)
 Não procure saber onde estou
        Bm7(9/11)         Bm7(11)
Meu destino não é de ninguém
          A4(7)                 
E eu não deixo os meus passos no 
   D5(9)
chão
      D5(7M/9)           D5(9)
Se você não entende não vê
           D5(7M/9)      Bm7(11)
Se não me vê não entende
        Bm7(9/11)         Bm7(11)
Não procure saber onde estou
          Bm7(9/11)     G7M
Se o meu jeito te surpreende

[Segunda Parte]

          G4+(6)        G7M
Se o meu corpo virasse sol
            G4+(6)        Em7(9)
Se a minha mente virasse sol
Em7(13) Em7(9) Mas só chove, chove Em7(13) Chove, chove ( D9 D5(9/C#) G6/B ) ( D9 D5(9/C#) G6/B ) [Primeira Parte] D5(9) D5(7M/9) D5(9) Se um dia eu pudesse ver D5(7M/9) Bm7(11) Meu passado inteiro Bm7(9/11) Bm7(11) E fizesse parar de chover Bm7(9/11) G7M Nos primeiros erros [Segunda Parte] G4+(6) G7M Meu corpo viraria sol G4+(6) Em7(9) Minha mente viraria sol Em7(13) Em7(9) Mas só chove, chove Em7(13) G7M Chove, chove G4+(6) G7M Meu corpo viraria sol G4+(6) Em7(9) Minha mente viraria Em7(13) Em7(9) Mas só chove, chove Em7(13) Chove, chove ( D E/D ) ( D E/D ) [Primeira Parte] D5(9) D5(7M/9) D5(9) Se um dia eu pudesse ver D5(7M/9) Bm7(11) Meu passado inteiro Bm7(9/11) Bm7(11) E fizesse parar de chover Bm7(9/11) G7M Nos primeiros erros [Segunda Parte] [Segunda Parte] G4+(6) G7M Meu corpo viraria sol G4+(6) Em7(9) Minha mente viraria sol Em7(13) Em7(9) Mas só chove, chove Em7(13) G7M Chove, chove G4+(6) G7M Meu corpo viraria sol G4+(6) Em7(9) Minha mente viraria Em7(13) Em7(9) Mas só chove, chove Em7(13) G7M Chove, chove G4+(6) G7M Meu corpo viraria sol G4+(6) Em7(9) Minha mente viraria sol Em7(13) Em7(9) Mas só chove, chove Em7(13) Chove, chove ( D9 D5(9/C#) G6/B ) ( D9 D5(9/C#) G6/B ) ( D5(9) E/D D5(9) )
Composição: Kiko ZambianchiColaboração e revisão: Lucas KappaunBreno Tarsius LimaEduardo chagase mais 7
Videoaula Primeiros Erros (aula de violão completa)

Utilizamos cookies para personalizar sua experiência. Ao acessar o site, você concorda com a nossa Política de Privacidade.