Respirar Você

Capital Inicial

A5
12
X022XX
Am
123
X02210
C
123
X32010
Em
12
022000
F
234
133211
F5
134
133XXX
G
123
320003
Tom: G
#1t1#Intro Riff 1x
     Am              F            C              Em
#1t2#E|----------0------------------------------------0--|
B|------------1--------1-------------1-----------0--|
G|------------------------2------------0------------|
D|--------------------------------------------------|
A|--0-0------------------------3-3------------------|
E|----------------1-1-----------------------0-0-----|#/1t2##/1t1#

#2t1#     Am              F            C              G
#2t2#E|----------0------------------------------------0--|
B|------------1--------1-------------1-----------0--|
G|------------------------2------------0------------|
D|--------------------------------------------------|
A|--0-0------------------------3-3------------------|
E|----------------1-1-----------------------3-3-----|#/2t2##/2t1#

Am           F           C        Em
Lento como o tempo q não quer passar
Am           F          C       G
Dorme pelos cantos e me faz pensar
Am           F            C       Em
Certo comu um corte q não quer doer
Am         F            C      G
Olho pro espelho sem me conhecer

Refrão:

C       F     C       F
Vou fingir q nunca te vi
C      F      C        F
Vou viver sem ter onde ir
C             G           Am
Até cansar de respirar você
C             G           F
Até cansar de respirar você

Am              F             C          Em
Hà uma coisa errada quando um par são três
     Am     F          C       G
uma vida inteira na primeira vez
   Am         F             C        Em
Palavra por palavra o que não quer dizer
Am           F           C      G
Arde tanto a ponto de enlouquecer

(Refrão)

( A5  F5 ) 3x  G
( A5  F5 ) 3x  G

Am           F           C        Em
Lento como o tempo q não quer passar
Am           F          C       G
Dorme pelos cantos e me faz pensar
Am           F            C       Em
Certo comu um corte q não quer doer
Am         F            C      G
Olho pro espelho sem me conhecer

C       F     C       F
Vou fingir q nunca te vi
C      F      C        F
Vou viver sem ter onde ir
C       F     C       F
Vou fingir q nunca te vi
C      F      C        F
Vou viver sem ter onde ir
C             G           Am
Até cansar de respirar você
C             G           F
Até cansar de respirar você

Solo 2 - 6x: Am  F  C  Em
             Am  F  C  G
 
Amanhã vai ser outro dia
Composição: Colaboração e revisão: Felipe BeckerGustavoThiago SimõesCesar Pereze mais 3