busca

Sexo & Drogas

Capital Inicial

Tom: D
Intro: Riff 2x

Riff
e|--------------------------|
B|--------------------------|
G|--------------------------|
D|--------------------------|
A|---5-7-----5-7---5-7-5----|
E|-0-----0-0-----0-------7--|

(Em       G      A)
Ela é um caso perdido
Ele não tem nais o que fazer
Ela cheirou um problema
Ele fumou um outro clichê
E quando o assunto acabar
Vão ligar pra você
pedindo mais, mais, mais, mais

Em           G
Sexo, drogas seu dinheiro
     A
Ela fala com as mãos
     G
Ele come com os pés
Em           G          
Sexo, drogas seu dinheiro
      A                    G
Candidato a presidente em 2010

Intro

(Em       G      A)
Ela bebeu o boteco inteiro
Ele bateu e capotou
Ela pediu um trago ao poste
Ele beijou de língua o motor
Quando a polícia chegar
Vão começar a correr
gritando mais, mais, mais, mais, mais

REFRÃO

SOLO
e|-----------------------------------------|
B|-------------------7-7-6b-7-7-6b-6brbrbr-|
G|-7h9-7-------------7-7----7-7------------|
D|-------9-7h9-5-0-------------------------|
A|-----------------7-----------------------|
E|-----------------------------------------|

e|-----------------------------------------|
B|-------------------7-7-6b-7-7-6b-7brbrbr-|
G|-7h9-7-------------7-7----7-7------------|
D|-------9-7h9-5-0-------------------------|
A|-----------------7-----------------------|
E|-----------------------------------------|

Ela esqueceu o próprio nome
Ele não soube o que responder
Ela parece o Che Guevara
Ele mordeu até quebrar a TV
E quando o dia raiar vão se ajoelhar
Implorando mais, mais, mais, mais, mais

REFRÃO 2x

RIFF 2X  (E finaliza com a corda mi(E) solta)

Clipes