busca

Sob Controle

Capital Inicial

Tom: F
(intro) Dm Am Gm Dm Am C Am

(riff inicial)
      Q    Q    Q    E  E     Q    Q    Q    E  E     Q    Q    E   E   E  E
E|-----------------------|-----------------------|--------------------------|
B|-------6----5----6--8--|-------6----5----6--8--|-------6----5h--6p--5--6--|
G|--5--------------------|-----------------------|--------------------------|
D|-----------------------|-----------------------|--------------------------|
A|-----------------------|-----------------------|--------------------------|
E|-----------------------|-----------------------|--------------------------|

   H        H           Q    Q    Q    E  E     Q    Q    Q    E  E
E|--------------------|-----------------------|-----------------------|
B|--------------------|-------6----5----6--8--|-------6----5----6--8--|
G|--------------------|--5--------------------|-----------------------|
D|--------------------|-----------------------|-----------------------|
A|--------------------|-----------------------|-----------------------|
E|--------------------|-----------------------|-----------------------|

  Q    Q    E   E   E  E     H        H
E|--------------------------|--------------------||
B|-------6----5h--6p--5-----|--------------------||
G|-----------------------5--|--------------------||
D|--------------------------|--------------------||
A|--------------------------|--------------------||
E|--------------------------|--------------------||

Dm              Am
    Você fala, você fala
Gm
    Eu simulo interesse
Dm              Am
    Tenho mil estratégias
C
    De médio alcance
Dm             Am
   Você fala, você fala
Gm
   Eu simulo interesse
Dm              Am
   Tenho mil estratégias
C
   De médio alcance
 Dm
Só preciso de você quando eu
   Am       Gm
Me sinto indefeso
    Dm           Am
Sei bem que existe um limite
     C
Mas você insiste, você persiste
 Dm       Em           Dm Em
    Você acha que tem tudo
Dm       Em          Dm         Em
   Você acha que tem tudo sob controle
Dm        Em          Dm  Em
    Você acha que tem tudo
Dm      Em         Dm          Em (intro)
  Você acha que tem tudo sob controle
Dm         Am
Você fala, você fala
Gm
     Mas sei bem a quem pertenço
Dm                       Am
     Tá escrito nos meus olhos
     C
Olhe mais de perto
Dm             Am
    Você fala, você fala
Gm
Nós buscamos outros caminhos
Dm                 Am      C
  E acabamos sempre no mesmo lugar
Dm              Am
Você jjogou só pra ganhar

    Gm
M as suas idéias se perderam no ar
   Dm               Am
Sei bem que existe um limite
     C
Mas você insiste, você
         Dm Am Gm Am C Am Dm
 persiste
Dm        Em          Dm  Em
    Você acha que tem tudo
Dm       Em          Dm         Em
   Você acha que tem tudo sob controle
Dm        Em          Dm  Em
    Você acha que tem tudo
Dm      Em         Dm          Em
  Você acha que tem tudo sob controle
Dm        Em          Dm  Em
    Você acha que tem tudo
Dm      Em         Dm          Em
  Você acha que tem tudo sob controle ....

Clipes

Cifra Club Pro

Aproveite o Cifra Club com benefícios exclusivos e sem anúncios
7 dias grátis
Cifra Club Pro
Aproveite o Cifra Club com benefícios exclusivos e sem anúncios
7 dias grátis