Tudo Que Vai

Capital Inicial

A
123
X0222X
A11
12
X00220
A5+(9)
1234
X07667
A5-
123
X01220
A7M(9)
134
X06604
A9
12
X07600
Bm
234
X24432
Bm/A
110ª23
X0X111210
D
123
XX0232
D7M
234
X57675
Dm
123
XX0231
Dm6
123
XX0767
Dm7
123
XX0211
Dm7(6)
123
XX0567
E
123
022100
Tom: G
[Intro]

[Primeira Parte]

#1t1#   A                 Bm/A
#1t2#E|----------9-------------------10----------|
B|-----10-----10----------12-------12-------|
G|---9----9------9-9---11----11-------11-11-|
D|------------------------------------------|
A|-0-----------------0----------------------|
E|------------------------------------------|#/1t2##/1t1#

[Segunda Parte]

#2t1#   D                    Dm7(6)
#2t2#E|------------12-10----------------7--------|
B|------10----------12-10------6-----6------|
G|---11----11----------------7---7-----7-7--|
D|-0-----------------------0----------------|
A|------------------------------------------|
E|------------------------------------------|#/2t2##/2t1#

[Terceira Parte]

#3t1#   A                   Bm/A
#3t2#E|----------10h9-----------------10---------|
B|-----10-------10----------12-----12-------|
G|---9----9--------9-9---11----11-----11-11-|
D|------------------------------------------|
A|-0-------------------0--------------------|
E|------------------------------------------|#/3t2##/3t1#

[Quarta Parte]

#4t1#   D                      Dm7(6)
#4t2#E|------------12-10---------7---------------|
B|------10----------12-10---6---------------|
G|---11----11---------------5---------------|
D|-0------------------------0---------------|
A|------------------------------------------|
E|------------------------------------------|#/4t2##/4t1#

[Primeira Parte]

 A9       A7M(9)
Hoje é o dia
     D               Dm
Eu quase posso tocar o silêncio
   A9     A7M(9)
A casa vazia
 D                  Dm
Só as coisas que você não quis
    A9          A7M(9)
Me fazem companhia
    D
Eu fico à vontade
       Dm             Bm       D
Com a sua ausência aaaahhhh...
           Bm        D         Dm
Eu já me acostumei a esquecer

[Refrão]

          A9
Tudo que vai
         A5+(9)          D7M
Deixa o gosto, deixa as fotos
  E           A9
Quanto tempo faz
          A5+(9)           D7M
Deixa os dedos, deixa a memória
    E
Eu nem me lembro

[Segunda Parte]

 A9       A7M(9)
Salas e quartos
 D                   Dm
Somem sem deixar vestígio
     A9         A7M(9)
Seu rosto em pedaços
 D                   Dm
Misturado com o que não sobrou
     A9       A7M(9)
Do que eu sentia
    D                        Dm    Bm
Eu lembro dos filmes que eu nunca vi
D           Bm             D         Dm
  Passando sem parar em algum lugar

[Refrão]

          A9
Tudo que vai
         A5+(9)          D7M
Deixa o gosto, deixa as fotos
  E           A9
Quanto tempo faz
          A5+(9)           D7M
Deixa os dedos, deixa a memória
    E             A9
Eu nem me lembro mais

        A5+(9)          D7M
Fica o gosto, ficam as fotos
  E           A9
Quanto tempo faz
          A5+(9)          D7M
Ficam os dedos, fica a memória
    E
Eu nem me lembro mais

[Terceira Parte]

#5t1#   A                    Bm/A
#5t2#E|----------10h9-----------------10---------|
B|-----10-------10----------12-----12-------|
G|---9----9--------9-9---11----11-----11-11-|
D|------------------------------------------|
A|-0-------------------0--------------------|
E|------------------------------------------|#/5t2##/5t1#

[Quarta Parte]

#6t1#   D                      Dm7(6)
#6t2#E|------------12-10---------7---------------|
B|------10----------12-10---6---------------|
G|---11----11---------------5---------------|
D|-0------------------------0---------------|
A|------------------------------------------|
E|------------------------------------------|#/6t2##/6t1#

[Terceira Parte]

"Quanto tempo eu já nem sei..."

[Primeira Parte]

#7t1#   A                  Bm/A
#7t2#E|----------9-------------------10----------|
B|-----10-----10----------12-------12-------|
G|---9----9------9-9---11----11-------11-11-|
D|------------------------------------------|
A|-0-----------------0----------------------|
E|------------------------------------------|#/7t2##/7t1#

[Segunda Parte]

#8t1#   D                    Dm7(6)
#8t2#E|------------12-10----------------7--------|
B|------10----------12-10------6-----6------|
G|---11----11----------------7---7-----7-7--|
D|-0-----------------------0----------------|
A|------------------------------------------|
E|------------------------------------------|#/8t2##/8t1#

        A                Bm/A
Quanto tempo, eu já nem sei
              D  Dm6
mais o que é meu
      A        A5-  A11  Dm7
Nem quando, nem onde

[Refrão]

          A9
Tudo que vai
         A5+(9)          D7M
Deixa o gosto, deixa as fotos
  E           A9
Quanto tempo faz
          A5+(9)           D7M
Deixa os dedos, deixa a memória
    E             A9
Eu nem me lembro mais

        A5+(9)             D7M
Fica o gosto, ficam as fotos
  E           A9
Quanto tempo faz
          A5+(9)          D7M
Ficam os dedos, fica a memória
    E             A9
Eu nem me lembro mais
    A5+(9)        D7M
Eu nem me lembro mais
    E             A9
Eu nem me lembro mais
    A5+(9)        D7M
Eu nem me lembro mais
    E
Eu nem me lembro mais
Composição: Toni Platao / Alvin L./ Dado Villa-LobosColaboração e revisão: Gabriel SilvaDANIEL RODRIGUESbenedito netoIolanda Honoratoe mais 3
Videoaula Tudo Que Vai (aula de violão completa)