busca

As Coisas Tão Mais Lindas

Cássia Eller

Tom: G#
[Intro]  Bb  A  Ab

E|---6-/11---------------------------------|
B|-----------------------------------------|
G|-----------------------------------------|
D|-----------------------------------------|
A|-----------------------------------------|
E|-----------------------------------------|

D#
Entre as coisas mais lindas que eu conheci
 Db            G#                 D#
Só reconheci suas cores belas quando eu te vi
D#
Entre as coisas bem  vindas que já recebi
Db               G#                D#
Eu reconheci minhas cores nela, então eu me vi

E|---3--3--1--1----------------------------|
B|---4--4--2--2---4------------------------|
G|----------------1------------------------|
D|-----------------------------------------|
A|-----------------------------------------|
E|-----------------------------------------|

Bb
Está em cima com o céu e o luar
                                        F
Hora dos dias, semanas, meses, anos, décadas

E séculos, milênios que vão passar 
Bb
Água- marinha põe estrelas no mar
                                      F
Praias, baías, braços, cabos, mares, golfos

E penínsulas e oceanos que não vão secar
Cm                      D#
E as coisas lindas são mais lindas 
  Bb
Quando você está 
 Bb/Ab
Hoje você está
Bb/G
Onde você está
Eb/G
As coisas são mais lindas
 Bb
Por que você está 
Bb/Ab
Onde você está 
 Bb/G
Hoje você está 
 Eb/G
Nas coisas tão mais lindas

Clipes