busca

Espaço

Cássia Eller

Tom: B
[Riff 1]

E|-----------------------------|
B|-----------------------------|
G|-----------------------------|
D|-----------------------------|
A|--------0h2-4p2--------------|
E|-2h3p2-----------------------|

[Riff 2]

E|-----------------------------|
B|-----------------------------|
G|-----------------------------|
D|-----------------------------|
A|--0h2-4p2--------------------|
E|-----------2s3---------------|

Bm             Bb9-
Quarto de não dormir
B7(9)         Bm/F#
Sala de não estar
G#7            F#7
Porta de não abrir
G         
Pátio de sufocar

Bm            Bb9-
Carta no corredor
B7(9)           Bm/F#
Eu não vou nem pegar
Bm            Bb9-
A voz no gravador
G            
Não quero escutar

Bm          Bb9-
A lua é um farol
B7(9)           F#4
O vento, um assobio
G               F#7
A foto é um outdoor
  G
Teu rosto em 3x4
F#7
Mostra que

Bm    
Tudo
   G
Na madrugada
      F#7
Insiste em ficar
      G
Já que existe
        F#7
Tanto espaço em mim

Bm    
Juro
   G
Na luz do dia
     F#7
Todas as coisas
G
Vão me perder
      F#7
Como te perdi

( Bm  Bb9-  B7(9) )
( Bm/F#  G  F#7  G )

[Riff 1]

E|-----------------------------|
B|-----------------------------|
G|-----------------------------|
D|-----------------------------|
A|--------0h2-4p2--------------|
E|-2h3p2-----------------------|

Bm             Bb9-
Quarto de não dormir
B7(9)         Bm/F#
Sala de não estar
G              F#7
Porta de não abrir
G        
Pátio de sufocar

Bm            Bb9-
Carta no corredor
B7(9)           Bm/F#
Eu não vou nem pegar
G              F#7
A voz no gravador
G             
Não quero escutar

Bm          Bb9-
A lua é um farol
B7(9)           F#4
O vento, um assobio
G               F#7
A foto é um outdoor
  G
Teu rosto em 3x4
F#7
Mostra que

Bm    
Tudo
   G
Na madrugada
      F#7
Insiste em ficar
      G
Já que existe
        F#7
Tanto espaço em mim

Bm    
Juro
   G
Na luz do dia
     F#7
Todas as coisas
G
Vão me perder
      F#7
Como te perdi

Bm
Juro

Clipes