busca

Quando a Maré Encher

Cássia Eller

Tom: D
Riff 1:
                              __Parte 1__
     E   D E      E   D E    /           \
E|-------------------------|--------------
B|-------------------------|--------------
G|--4-4--2-4-----4-4--2-4--|-0>2-0--------
D|--2-2--0-2-----2-2--0-2--|-------2-0----
A|-------0------------0----|--------------
E|-------------------------|--------------

Riff 2:
          E            G       A
E|---------------------------------------
B|---------------------------------------
G|--4-4-4-4-4-4-4-4-7-7-7-7-9-9-9-9------
D|--2-2-2-2-2-2-2-2-5-5-5-5-7-7-7-7------
A|---------------------------------------
E|---------------------------------------

Riff 3:
          E            D   C# D        E           G       A
E|---------------------------------------------------------------
B|---------------------------------------------------------------
G|--4-4-4-4-4-4-4-4-2-2-2-2-----4-4-4-4-4-4-4-4-7-7-7-7-9-9-9-9--
D|--2-2-2-2-2-2-2-2-0-0-0-0-6-7-2-2-2-2-2-2-2-2-5-5-5-5-7-7-7-7--
A|------------------0-0-0-0-4-5----------------------------------
E|---------------------------------------------------------------

Intro: Riff[1] 4X

Fui na rua pra brigar procurar o que fazê  |
Fui na rua cherá cola, arrumá o que cumê   | Riff[1]
Fui na rua jogá bola vê us carro corrê     |
Tomá banho de canal quando a maré enchê

4 |Quando a maré enchê, quando a maré enchê | Riff[2]
x |Tomá banho de canal quando a maré enchê  |

Riff[1] 2X

É pedra que apóia tábua e madeira que apóia telha |
Saco plástico, prego, papelão                     |
Amarra saco, cava buraco                          | Riff[1] sem a Parte 1
Barraco                                           |
Moradia popular em propagação                     |

Cachorro, gato, galinha, bicho-de-pé               |
E a população real convive em harmonia normal     |
Faz parte do dia-a-dia                            |Riff[1] sem a parte 1
Banheiro, cama, cozinha no chão                   |
Esperança, fé em Deus, ilusão                     |

4 |Quando a maré enchê, quando a maré enchê | Riff[2]
x |Tomá banho de canal quando a maré enchê  |

Riff[3] 2X

Fui na rua pra brigar procurar o que fazê  |
Fui na rua cherá cola, arrumá o que cumê   | Riff[1] sem a parte 1
Fui na rua jogá bola vê us carro corrê     |
Tomá banho de canal quando a maré enchê

4 |Quando a maré enchê, quando a maré enchê | Riff[2]
x |Tomá banho de canal quando a maré enchê  |

Riff[3] 2X

Quando a maré enchê, quando a maré enchê  |Riff[3] 4X

Clipes

Cifra Club Pro

Aproveite o Cifra Club com benefícios exclusivos e sem anúncios
7 dias grátis
Cifra Club Pro
Aproveite o Cifra Club com benefícios exclusivos e sem anúncios
7 dias grátis