busca

Um Tiro No Coração

Cássia Eller

Tom: E
Intro:

          F#m7 B7    F#m7 B7
E|--------x---2-| ---x---2-|
B|--------2---0-| ---2---0-|
G|--------2---2-| ---2---2-|  (x2)
D|--------2---1-| ---2---1-|
A|-3-2----x---2-| ---x---2-|
E|-----2--2---x-| -2-2---x-|

E|----------------|
B|----------------|
G|----------------|
D|-9/11~-9~-7/5-4~|
A|----------------|
E|----------------|

F#m7 B7
Como um livro quando faltam páginas
Some do epílogo a explicação
No altar vazio, em silêncio, arde no suspiro dessa canção
Eu fecho os vidros pelo fim da tarde
E o sol sumindo deixa a escuridão
Que cai tingindo em sangue a minha carne
Um tiro no coração
        E   A
Despedaçou
                   E                          A
No asfalto um arco-íris dos seus lábios sem cor
              E  A                  E
E os que restou, um armário sem vestidos, 
              A       (F#m7 B7)
Um vaso sem flor

E|---------------------------|------------------------------------|
B|-12/14~-14/12-10-12/14-12~-|-12/14~-14/16-16-14-12-12/10-10/14~-|
G|---------------------------|------------------------------------|
D|---------------------------|------------------------------------|
A|---------------------------|------------------------------------|
E|---------------------------|------------------------------------|

Refrão:

C#7m                      A          F#m7
Mas vou deixar a minha porta aberta
                      E
Fechar os olhos para me lembrar
      A                  G#m
De quando  você entrou aqui, falou com a moça 
      F#m               A G#m B7     A
Pode ir, porque pode ficar, pode ficar

F#m7 B7
O mar tranqüilo agora se eleva
E os utensílios ficam sem função
Num lugar querido agora escuto as trevas
O motivo dessa canção
Só eu sei, eu sei, eu sei
O sal em dunas que acumulam lágrimas
Por vale inunda a imensidão
Está fugindo a minha estrela Dalva
No céu só escuridão
             E
Você me deixou
A             E                      A
Eu vi você sair  sem dizer pra onde foi
            E
E  que restou
A             E                   A
Vai ficar comigo e a saudade depois

(Refrão)

Clipes