busca

Minha Essência

Cassiane

Tom: G
E|---------------------------------------------------------------------|
B|---------------------------------------------------------------------|
G|---------------------------------------------------------------------|
D|------------------------------------------------12----15-------------|
A|---/9h10h12----10--9-------------------------------------------------|
E|---------------------------------12----------------------------------|

E|---------------------------------------------------------------------|
B|---------------------------------------------------------------------|
G|---------------12----------------14--------14b16---------------------|
D|-----12---------------12---------------------------------------------|
A|---------------------------------------------------------------------|
E|---------------------------------------------------------------------|

E|----10------------10-------------------------------------------------|
B|----13b15-------13br15------12--13-----------------------------------|
G|--------------------------------------------------12\----------------|
D|---------------------------------------------------------------------|
A|---------------------------------------------------------------------|
E|---------------------------------------------------------------------|

E|---------------------------------------------------------------------|
B|--10--8-------10--8-----10---8-----10---8----------------------------|
G|------------9--------9----------9------------7~~---------------------|
D|---------------------------------------------------------------------|
A|---------------------------------------------------------------------|
E|---------------------------------------------------------------------|
                                                                                                                                                         
E|-----7----------------------------12---------12----------------------|
B|-----10b12r(10)10b12--------------15b17--- --15br17------------------|
G|---------------------------------------------------------------------|
D|---------------------------------------------------------------------|
A|---------------------------------------------------------------------|
E|---------------------------------------------------------------------|

E|---------------------------------------------------------------------|
B|----20^b(23)---20--17--17---20--17---17\-----------------------------|
G|---------------------------------------------------------------------|
D|---------------------------------------------------------------------|
A|---------------------------------------------------------------------|
E|---------------------------------------------------------------------|

Clipes

Cifra Club Pro

Aproveite o Cifra Club com benefícios exclusivos e sem anúncios
7 dias grátis
Cifra Club Pro
Aproveite o Cifra Club com benefícios exclusivos e sem anúncios
7 dias grátis