busca

A Bandinha

Católicas

Tom: G
Intro: Em


E|--------------------------|----------|
B|---8-7-8---8-7-8---8-7-8--|----------|
G|-9-------9-------9--------|-2-vezes--|
D|--------------------------|----------|
A|--------------------------|----------|
E|--------------------------|----------|

E|------------------------|----------|
B|----10-9-10----10---10--|----------|
G|-11---------11----9-----|-2-vezes--|
D|------------------------|----------|
A|------------------------|----------|
E|------------------------|----------|

E|--------------------------------|
B|---8-7-8---12-10-12-8-10-8-7----|
G|-9-------9-------------------9--|
D|--------------------------------|
A|--------------------------------|
E|--------------------------------|

Parte 1
Em               D
Pai nosso que estais nos céu
         Em
Houve nossas orações
          C     G
Venha-nos o reino teu senhor
           C    G
Pois e grande esse teu amor
     C
Pra melhor lhe servir
    G      D/F#  Em G
E louvores te dar
   D D#m    Em
Es a paz do mundo

Parte 2
          D
Es o pão da vida que
         Em
Alimenta multidões
          C    G
Tu perdoas a quem perdoar
          C    G
Tu recebes a quem te buscar
    C
Não permitas que o mau
  G      D/F# Em G
Nos domine senhor
    D  D#m    Em
Fique aqui com nosso


Solo: D  Em  D  Em

"Repetir a 1 e 2 parte falando"

Parte 2

    D  D#m    Em
Fique aqui com nosso

Clipes

Cifra Club Pro

Aproveite o Cifra Club com benefícios exclusivos e sem anúncios
Cifra Club Pro
Aproveite o Cifra Club com benefícios exclusivos e sem anúncios