busca

Hino da Novena da Festa da Padroeira do Brasil 2016

Católicas

Tom: E
Intro: 

    E       A/E      B        E                           A/E      B        E
E|-4-0--4/0-5--0--9-7--9-7-5-4-------------------4-0--4/0-5--0--9-7--9-7-5-4---------------------|
B|-----------------------------------------------------------------------------------------------|
G|-4-1--4/1-6--1--9-8--9-8-6-4-------------------4-1--4/1-6--1--9-8--9-8-6-4---------------------|
D|------------------------------------2---------------------------------------------2------------|
A|--------------------------------2h4----4-2------------------------------------2h4----4-2-------|
E|-------------------------------------------4-2-0-----------------------------------------4-2-0-|

E             E/G# A/C# Am/C E/B        B      E
Salve dos céus    Rainha     a nós tão carinhosa
E           E/G# A/C# Am/C E/B        B       E
Protege nos     piedosa,    ó Mãe do Belo amor
A         E    C#m B F#m   C#m        B
De nossas almas vida doçura dos que te amam
E        E/G#     A/C# Am/C E/B       B      E
Esperança dos que clamam    a ti nos altos céus

    E         A   B
E|-------------------|
B|-9/7-5-------------|
G|-------4-4/6---9-8-|
D|-9/7-6-------------|
A|-------------------|
E|-------------------|

E          E/G# A/C# Am/C E/B         B       E
A ti as nossas  preces,   de Eva infelizes filhos
E           E/G# A/C# Am/C E/B      B       E
Em nosso triste  exílio    erquemos a chorar
A         E   C#m B F#m        C#m    B
Neste trevoso vale, de pranto e de gemido
E       E/G#  A/C# Am/C E/B      B     E
Com coração   dorido    pedimos proteção

    E         A   B
E|-------------------|
B|-9/7-5-------------|
G|-------4-4/6---9-8-|
D|-9/7-6-------------|
A|-------------------|
E|-------------------|

E              E/G# A/C# Am/C E/B       B         E
A nós volve, em    defesa     os olhos teus benignos 
E             E/G# A/C# Am/C E/B       B       E
Pois somos réus  indignos    mas somos filhos teus
A          E    C#m B  F#m       C#m   B
Com teu olhar piedoso, sê luz aos pecadores
E         E/G# A/C# Am/C E/B       B    E
Acende em mil   ardores  do justo coração

    E         A   B
E|-------------------|
B|-9/7-5-------------|
G|-------4-4/6---9-8-|
D|-9/7-6-------------|
A|-------------------|
E|-------------------|

E             E/G# A/C# Am/C E/B      B         E
Depois do triste   exílio,   sacia o nosso anseio 
E           E/G# A/C# Am/C E/B           B      E
E o fruto do teu    seio   nos mostra enfim Jesus
A       E    C#m B  F#m    C#m      B
Rainha de clemência, ó Mãe suave e pia
E       E/G# A/C# Am/C E/B        B       E
Doce virgem  Maria,    eis nossa prece amém

    E         A   B    E
E|--------------------|
B|-9/7-5--------------|
G|-------4-4/6---9-8--|
D|-9/7-6--------------|
A|--------------------|
E|--------------------|

Clipes