busca

O Senhor É Rei

Católicas

Tom: G
   Em          G                  D                 Em
E|------7--12------7--10--14/15----10----10----10-11-12----12-----|
B|----8---------8---------------------10----10----------12----12--|
G|--9-------------------------------------------------------------|
D|----------------------------------------------------------------|
A|----------------------------------------------------------------|
E|----------------------------------------------------------------|

( Em  D  G )

Em               D9/F# G                         D Eb°
 O Senhor é Rei     ,  o Senhor é meu pastor e Rei
Em               D9/F# G                         D Eb°
 O Senhor é Rei     ,  o Senhor é meu pastor e Rei
Em                   D9/F# G                    D         Eb°          
 O Senhor está no céu  ,   o Senhor está no mar,  na extensão do
    Em
Infinito
Em                   D9/F# G                    D         Eb°         
 O senhor está no céu  ,   o Senhor está no mar,  na extensão do
    Em      D7   
Infinito (onde ele está?)

G             D        Eb° Em          C         D
 Está no céu,  está no mar ,  na extensão do infinito
G             D        Eb° Em          C         D
 Está no céu,  está no mar ,  na extensão do infinito

     D4 D D9  D  D9  
E|--3--2--0--2--0----|
B|--3--3--3--3--3----|
G|--2--2--2--2--2----|
D|-------------------|
A|-------------------|
E|-------------------|

Em                  D9/F# G                D          Eb°        Em 
  Quando eu vacilar    ,   eu não temerei,  pois o Senhor está comigo
Em                  D9/F# G                D           Eb°        Em     
  Quando eu vacilar    ,   eu não temerei,  pois o Senhor está comigo
   D7
(onde ele está?)

G             D        Eb° Em          C         D
 Está no céu,  está no mar ,  na extensão do infinito
G             D        Eb° Em          C         D
 Está no céu,  está no mar ,  na extensão do infinito

Clipes

Cifra Club Pro

Aproveite o Cifra Club com benefícios exclusivos e sem anúncios
Cifra Club Pro
Aproveite o Cifra Club com benefícios exclusivos e sem anúncios