busca

O Senhor É Rei

Católicas

Tom: G
(Tablatura)


              F#m
   Em      Em | G                       D
   |        | | |                       |
E|-----------------------------------|
A|-----------------------------------|
D|-----------------------------------|1 Parte 2x
G|-----------------------------------|
B|-----------------------------------|
e|-0-0-0-2-0-0-2-3-3-3-3-5-7-5-3-7-5-|

Em               G       D                 Em
                 |       |                 |
E|------------------------------------------------|
A|------------------------------------------------|
D|------------------------------------------------|2 parte 2x
G|------------------------------------------------|
B|------------------------------------------------|
e|-0-0-0-2-3-2-0--3-3-3-5-7-5-3-5-5-7-8-8-7-5-8-7-|

   D      G
   |       |
E|-----------|
A|-----------|
D|-----------| (onde Ele está)
G|-----------|
B|-----------|
e|-7-7-5-3-7-|

              D                   Em             D
              |                   |              |
E|-----------------------------------------------|
A|-----------------------------------------------|
D|-----------------------------------------------| Refrão
G|-----------------------------------------------|
B|-----------------------------------------------|
e|-7-7-8-7-5-3-5-5-5-7-5-3-2-3-3-3-5-7-7-5-3-7-5-|

Clipes

Cifra Club Pro

Aproveite o Cifra Club com benefícios exclusivos e sem anúncios
Cifra Club Pro
Aproveite o Cifra Club com benefícios exclusivos e sem anúncios