busca

Pelos Prados e Campinas

Católicas

Tom: Am
[Intro]

 C         Am         F   Fm    C     Em        F        G
E|--------------------------1-----------0-1-3--3-3-3/5-5--3-1-0---|
B|-1-3-3/5-5--3-1-3/5-5--1-3-1-3-3/5---------------------------3--|
G|----------------------------------------------------------------|
A|----------------------------------------------------------------|
B|----------------------------------------------------------------|
E|----------------------------------------------------------------|


    F      G    C     Am     F         G          C     C7
E|-3-3/5-------5-5/3-0----------1-1--0-1-0--------3--5-5-5-5-3----|
B|-------5-5/3---------1--1-3-5-----------3-3-1-0-----------------|
G|----------------------------------------------------------------|
A|----------------------------------------------------------------|
B|----------------------------------------------------------------|
E|----------------------------------------------------------------|


   F      G    C     Am     Dm         G          C     
E|-3-3/5-------5-5/3-0----------1-1--0-1-0------------------------|
B|-------5-5/3---------1--1-3-5------------3-3-1-0----------------|
G|------------------------------------------------5---------------|
A|----------------------------------------------------------------|
B|----------------------------------------------------------------|
E|----------------------------------------------------------------|


       C          Am         F  Fm      C         
Pelos prados e campinas verdejantes eu vou
       Em         F             G
É o Senhor que me leva a descansar
          C              Am         F Fm       C
Junto às fontes de águas puras repousantes eu vou
        Em          F         G
Minhas forças o Senhor vai animar

   F       G      C        Am  
Tu és, Senhor, o meu    pastor
          F            G          C           C7
Por isso nada em minha vida faltará (Nada faltará)
 F      G     C      Am           
Tu és, Senhor o meu pastor
          Dm            G         C
Por isso nada em minha vida faltará

      C             Am           F Fm     C         Em
Nos caminhos mais seguros junto d´ele eu vou e pra sempre o
    F            G           C            Am         F   Fm
Seu nome eu honrarei se eu encontro mil abismo nos caminhos
    C       Em           F             G
Eu vou segurança sempre tenho em suas mãos

   F       G      C        Am  
Tu és, Senhor, o meu    pastor
          F            G          C           C7
Por isso nada em minha vida faltará (Nada faltará)
 F      G     C      Am           
Tu és, Senhor o meu pastor
          Dm            G         C
Por isso nada em minha vida faltará

     C              Am         F  Fm     C      Em
Ao banquete em sua casa muito alegre eu vou um lugar em sua
 F            G       C            Am         F  Fm     C
Mesa me preparou  ele unge minha fronte e me faz ser feliz e
     Em          F            G
Transborda minha taça em seu amor

   F       G      C        Am  
Tu és, Senhor, o meu    pastor
          F            G          C           C7
Por isso nada em minha vida faltará (Nada faltará)
 F      G     C      Am           
Tu és, Senhor o meu pastor
          Dm            G         C
Por isso nada em minha vida faltará

 C              Am         F  Fm       C          Em
Bem a frente do inimigo, confiante eu vou Tenho sempre o 
 F               G       C           Am        F Fm       C
Senhor junto de mim seu cajado me protege e eu jamais temerei
     Em          F            G
Sempre junto do Senhor eu estarei

   F       G      C        Am  
Tu és, Senhor, o meu    pastor
          F            G          C           C7
Por isso nada em minha vida faltará (Nada faltará)
 F      G     C      Am           
Tu és, Senhor o meu pastor
          Dm            G         C
Por isso nada em minha vida faltará

Clipes

Cifra Club Pro

Aproveite o Cifra Club com benefícios exclusivos e sem anúncios
Cifra Club Pro
Aproveite o Cifra Club com benefícios exclusivos e sem anúncios