Renova-me

Católicas

A
123
X02220
A/C#
1234
X4X255
A7
12
X02020
Bm
234
X24432
D
123
XX0232
Em
12
022000
F#m
34
244222
F#m/C#
34
X44222
G
123
320003
G/D
1234
X5543X
Tom: G
#1t1#(intro)
       D     G  A     D A Bm   G         A
#1t2#E|--------------------------------------|
B|---7-10-8-7--7/8-7----7/8-7-7-----7---|
G|--9--------9------9-7---------9-7---9-| (2x)
D|--------------------------------------|
A|--------------------------------------|
E|--------------------------------------|#/1t2##/1t1#

#2t1##2t2#E|---------------------------------------------7-9-7-|
B|-7-8-8/10-10-8-10--10-10-8-7-7/8--8-8-8-8-10-------|
G|---------------------------------------------------|
D|---------------------------------------------------|
A|---------------------------------------------------|
E|---------------------------------------------------|#/2t2##/2t1#

#3t1##3t2#E|--------------------------7-9-10-9-10-7------------|
B|-10-8---7-8-10-10-8-10-10---------------10-8-7-8---|
G|---------------------------------------------------|
D|---------------------------------------------------|
A|---------------------------------------------------|
E|---------------------------------------------------|#/3t2##/3t1#

#4t1##4t2#E|-------------|
B|-7-----------|
G|--9-7-6-9-7--|
D|-------------|
A|-------------|
E|-------------|#/4t2##/4t1#

    D   G/D    A/C#   Bm
 Renova-me, Senhor Jesus
G        Em         A     A7
 Já não quero ser igual
    D   G/D    A/C#   Bm
 Renova-me, Senhor Jesus,
G        Em         A     A7
Põe em mim teu coração

         D       F#m/C#        Bm      F#m
 Porque tudo que há         dentro de mim
G       Em         G       A
    Precisa ser mudado Senhor
         D       F#m/C#           Bm     F#m
 Porque tudo que há    dentro do meu coração
G       A7           D
    Precisa mais de ti
Composição: Pastor Marcos WittColaboração e revisão: debora fariaReh Araujoluis netozekinhae mais 3