busca

Renova-me

Católicas

Tom: D
(intro)
       D     G  A     D A Bm   G         A
E|--------------------------------------|
B|---7-10-8-7--7/8-7----7/8-7-7-----7---|
G|--9--------9------9-7---------9-7---9-| (2x)
D|--------------------------------------|
A|--------------------------------------|
E|--------------------------------------|

E|---------------------------------------------7-9-7-|
B|-7-8-8/10-10-8-10--10-10-8-7-7/8--8-8-8-8-10-------|
G|---------------------------------------------------|
D|---------------------------------------------------|
A|---------------------------------------------------|
E|---------------------------------------------------|

E|--------------------------7-9-10-9-10-7------------|
B|-10-8---7-8-10-10-8-10-10---------------10-8-7-8---|
G|---------------------------------------------------|
D|---------------------------------------------------|
A|---------------------------------------------------|
E|---------------------------------------------------|

E|-------------|
B|-7-----------|
G|--9-7-6-9-7--|
D|-------------|
A|-------------|
E|-------------|

    D   G/D    A/C#   Bm
 Renova-me, Senhor Jesus
G        Em         A     A7
 Já não quero ser igual
    D   G/D    A/C#   Bm
 Renova-me, Senhor Jesus,
G        Em         A     A7
Põe em mim teu coração

         D       F#m/C#        Bm      F#m
 Porque tudo que há         dentro de mim
G       Em         G       A
    Precisa ser mudado Senhor
         D       F#m/C#           Bm     F#m
 Porque tudo que há    dentro do meu coração
G       A7           D
    Precisa mais de ti

Clipes

Cifra Club Pro

Aproveite o Cifra Club com benefícios exclusivos e sem anúncios
7 dias grátis
Cifra Club Pro
Aproveite o Cifra Club com benefícios exclusivos e sem anúncios
7 dias grátis