busca

Santão

Católicas

Tom: C
Intro: Am/C G/D Am/C G

E|---3/5-5-5-5-5-5-5-5-7-------|
B|---3/5-5-5-5-5-5-5-5-8-------|
G|---3/5-5-5-5-5-5-5-5-7-------| (2x)
D|-----------------------------|
A|-----------------------------|
E|-----------------------------|

                       G
E|---3/5-5-5-7-8-8-7-5-3-3-3---|
B|---3/5-5-5-5-5-5-5-5-3-3-3---|
G|---3/5-5-5-5-5-5-5-5-0-0-0---|
D|---------------------0-0-0---|
A|---------------------2-2-2---|
E|---------------------3-3-3---|

   G  Am  G  Am    G
Santo, Santo, Santo,
                   Am G Am
Senhor Deus do universo,
   C       C#5-      C    C#5-
o céu e a terra proclamam,
          C
a vossa glória, Hosana.
G#            D#5(9)
Hosana nas Alturas, Hosana
Fm            G
Hosana nas Alturas

           Dm       G7
Bendito aquele que vem
          C   C7M(9)/B   Am
que vem em nome do senhor
         Dm G7        C (F  Fm  C)
Hosana, Hosana nas Alturas

Clipes

Cifra Club Pro

Aproveite o Cifra Club com benefícios exclusivos e sem anúncios
7 dias grátis
Cifra Club Pro
Aproveite o Cifra Club com benefícios exclusivos e sem anúncios
7 dias grátis