busca

Bete Balanço

Cazuza

Introdução 

Parte 1 ( Tocar 2x )

   T  P       T  P
G|----9----------9----------------------------|
D|--------------------------------------------|
A|-7-----4-5--7----4-5-4-5--------------------|
E|--------------------------------------------|

Parte 2 

   T  P       T  P
G|--------------------------------------------|
D|----7----------7----------------------------|
A|--------------------------------------------|
E|-5-----7-8--5----7-8-7-8--------------------|

Parte 3                  

   T  P       T  P
G|----9----------9----------------------------|
D|--------------------------------------------|
A|-7-----4-5--7----4-5-4-5--------------------|
E|--------------------------------------------|

Primeira parte ( Tocar 2x )

Pode seguir a tua estrela...

Parte 1 ( Tocar 2x )

   T  P       T  P
G|----9----------9----------------------------|
D|--------------------------------------------|
A|-7-----4-5--7----4-5-4-5--------------------|
E|--------------------------------------------|

Parte 2 

   T  P       T  P
G|--------------------------------------------|
D|----7----------7----------------------------|
A|--------------------------------------------|
E|-5-----7-8--5----7-8-7-8--------------------|

Parte 3                  

   T  P       T  P
G|----9----------9----------------------------|
D|--------------------------------------------|
A|-7-----4-5--7----4-5-4-5--------------------|
E|--------------------------------------------|

Segunda parte

Quem vem com tudo não cança...

Parte 1

G|--------------------------------------------|
D|--------------------------------------------|
A|-------------5--7---------------------------|
E|-7-7—8--5--8------7-7--8-8-8-7--3-3/5-------|

Solo de guitarra

Parte 1 ( Tocar 3x )

   T  P       T  P
G|----9----------9----------------------------|
D|--------------------------------------------|
A|-7-----4-5--7----4-5-4-5--------------------|
E|--------------------------------------------|

Parte 2 

   T  P       T  P
G|--------------------------------------------|
D|----7----------7----------------------------|
A|--------------------------------------------|
E|-5-----7-8--5----7-8-7-8--------------------|

Parte 3                  

   T  P       T  P
G|----9----------9----------------------------|
D|--------------------------------------------|
A|-7-----4-5--7----4-5-4-5--------------------|
E|--------------------------------------------|

Terceira parte

Não ligue pra essas caras tristes...

Parte 1

G|--------------------------------------------|
D|--------------------------------------------|
A|---------9-9---------7-7--------------------|
E|-7-7--7--------5-7-7-----10-8-8-------------|

Parte 2

G|--------------------------------------------|
D|--------------------------------------------|
A|---------9-9----------------10-10h12--------|
E|-7-7--7--------5-7-7--8---------------------|

Introdução 2

Parte 1 ( Tocar 2x )

   T  P       T  P
G|----9----------9----------------------------|
D|--------------------------------------------|
A|-7-----4-5--7----4-5-4-5--------------------|
E|--------------------------------------------|

Quarta parte ( Tocar 2x )

Pode seguir a tua estrela...

Parte 1 ( Tocar 2x )

   T  P       T  P
G|----9----------9----------------------------|
D|--------------------------------------------|
A|-7-----4-5--7----4-5-4-5--------------------|
E|--------------------------------------------|

Parte 2 

   T  P       T  P
G|--------------------------------------------|
D|----7----------7----------------------------|
A|--------------------------------------------|
E|-5-----7-8--5----7-8-7-8--------------------|

Parte 3                  

   T  P       T  P
G|----9----------9----------------------------|
D|--------------------------------------------|
A|-7-----4-5--7----4-5-4-5--------------------|
E|--------------------------------------------|

Quinta parte

Quem vem com tudo...quem tem um sonho...

Parte 1

G|--------------------------------------------|
D|--------------------------------------------|
A|-------------5--7---------------------------|
E|-7-7—8--5--8------7-7--8-8-8-7--3-3/5-------|

Parte 2              

   T  P       T  P
G|----9----------9----------------------------|
D|--------------------------------------------|
A|-7-----4-5--7----4-5-4-5--------------------|
E|--------------------------------------------|

Parte 3

G|--------------------------------------------|
D|--------------------------------------------|
A|-------------5--7---------------------------|
E|-7-7—8--5--8------7-7--8-8-8-7--3-3/5-------|

Solo de guitarra final

Parte 1 ( Tocar 3x )

   T  P       T  P
G|----9----------9----------------------------|
D|--------------------------------------------|
A|-7-----4-5--7----4-5-4-5--------------------|
E|--------------------------------------------|

Parte 2 

   T  P       T  P
G|--------------------------------------------|
D|----7----------7----------------------------|
A|--------------------------------------------|
E|-5-----7-8--5----7-8-7-8--------------------|

Parte 3                  

   T  P       T  P
G|----9----------9----------------------------|
D|--------------------------------------------|
A|-7-----4-5--7----4-5-4-5--------------------|
E|--------------------------------------------|

Parte 4

G|--------------------------------------------|
D|--------------------------------------------|
A|-------------5--7---------------------------|
E|-7-7—8--5--8------7-7--8-8-8-7--3-3/5-------|

Parte 5 ( Tocar 3x )

   T  P       T  P
G|----9----------9----------------------------|
D|--------------------------------------------|
A|-7-----4-5--7----4-5-4-5--------------------|
E|--------------------------------------------|

Parte 6

G|--------------------------------------------|
D|--------------------------------------------|
A|-------------5--7---------------------------|
E|-7-7—8--5--8------7-7--8-8-8-7--3-3/5--0----|

Clipes