busca

Boas Novas

Cazuza

intro 4x
G-------------------------------------
D-------------------------------------
A-------2--2------2-------------------
E----------------------0-0—0h2h0h2/4--

Poetas e loucos aos poucos 
 Cantores do porvir...
G-------------------------------------
D-------------------------------------
A-------2--2------2-------------------
E----------------------0-0—0h2h0h2/4--

Trago boas novas Bobagens num papel 
Balões incendiados  Coisas que caem do céu              

G ----------------------9--------------------------------------11-------------
D -------------9h11-------11--------------------11h13----------13-------------
A --------9------------------------9---------11---------------------------11--
E ---------------------------------------------------------------------------- 

Sem mais nem por quê
G -----------------------------
D -----------------------------
A --------77777777---55555555--
E -----------------------------

Repete tudo a mesma coisa

Refrão

Senhoras e Senhores, trago boas novas

G ----------------------------------------
D ----------------------------------------
A ----------------------------------------
E -------7--0-7-7-0-0-------5-0-5-5-0-0---

Eu vi a cara da morte e ela estava viva (viva)

G -------------------------------------------------------------------------------------------
D -----------------------6--4------------------6--4------------------------------------------
A --3----3-------4h6---------6\4-------4h6-------6\3------3----5----12-12-12-12-12-12-12-12--
E ------------4----------------------4-------------------------------------------------------

Repete a introdução. A seqüência da música é igual até  o final.


_______________________________________________________
Contribuição: Renato Pandur(renato.pandur@tvfronteira.com.br)

Clipes

Cifra Club Pro

Aproveite o Cifra Club com benefícios exclusivos e sem anúncios
7 dias grátis
Cifra Club Pro
Aproveite o Cifra Club com benefícios exclusivos e sem anúncios
7 dias grátis