busca

Brasil

Cazuza

Tom: E
(intro 2x) C#5   B5   A5   E5

(solo)
  C#5       B5        A5            E5
|-------------------|--------------------|
|-14-14r/---12-12r/-|-14-14r-12-----12~~-|
|-------------------|--------------------|
|-------------------|--------------------|
|-------------------|--------------------|
|-------------------|--------------------|

  C#5         B5                    A5          E5
|----------------15p13p12------|----------------15p13p12------|
|-14-14r--12r-------------14r\-|-14-14r--12r-------------14r\-|
|-------------13---------------|-------------13---------------|
|------------------------------|------------------------------|
|------------------------------|------------------------------|
|------------------------------|------------------------------|

 B5                C#5                   A5
   Não me convidaram pra essa festa pobre     (contra-Baixo)
                        E5                ->  G|---------|
   Que os homens armaram pra me convencer     D|---------|

 B5              C#5              A5          A|---------|
   A pagar sem ver toda essa droga            E|-4--5--6-|
                      E5
   Que já vem malhada antes de eu nascer.

(solo 1) C#5   B5   A5   E5
|----------------15p13p12------|2
|-14-14r--12r-------------14r\-|v
|-------------13---------------|e
|------------------------------|z
|------------------------------|e
|------------------------------|s

B5                C#5
  Não me ofereceram nenhum cigarro               (durante esses versos)
A5                       E5                  E|---------|3 ----------|---------|4
  Fiquei na porta estacionando os carros     B|-5-5-5-5-|v ----5-7-5-|-5-5-5-5-|v

B5                C#5                        G|-4-4-4-4-|e -5h7-7----|-4-4-4-4-|e
  Não me elegeram chefe de nada              D|-2-2-4-2-|z ----------|-2-2-4-2-|z

A5                        E5                 A|---------|e ----------|---------|e
  O meu cartão de credito é uma navalha.     E|---------|s ----------|---------|s

(refrão)
   B5             C#5
Brasil, mostra tua cara
               A5                     E5
Quero ver quem paga pra gente ficar assim
   B5                   C#5
Brasil, qual é o teu negócio
             A5
O nome do te sócio
          E5
Confie em mim.

(solo 2)
  C#5       B5        A5            E5
|-------------------|--------------------|
|-14-14r/---12-12r/-|-14-14r-12-----12~~-|
|-------------------|--------------------|
|-------------------|--------------------|
|-------------------|--------------------|
|-------------------|--------------------|

  C#5         B5                 A5          E5
|----------------15p13p11------|----------------15p13p12-----|
|-14-14r--12r-------------14r\-|-14-14r--12r-----------------|
|-------------13---------------|-------------13----------12\-|
|------------------------------|-----------------------------|
|------------------------------|-----------------------------|
|------------------------------|-----------------------------|

B5                C#5                   A5
   Não me convidaram pra essa festa pobre     (contra-Baixo)
                     E5                ->  G|---------|
Que os homens armaram pra me convencer     D|---------|

B5              C#5              A5        A|---------|
  A pagar sem ver toda essa droga          E|-4--5--6-|
                   E5
Que já vem malhada antes de eu nascer.

                                                 E|------------19-19-19-|3 ----------|
   Não me sortearam a garota do Fantástico       B|-17-17-17------------|x ----5-7-5-|
                                                 G|---------------------|  -5h7-7----|
   Não me subornaram será que meu fim
 B5                  C#5             G5
   Ver TV a cores na taba de um índio
                  E5
   Programada pra só dizer sim, sim.
E |---------|
B |-5-5-5-5-|
G |-4-4-4-4-|
D |-2-2-4-2-|  (4x)
A |---------|
E |---------|

(refrão)
     B5             C#5
Brasil, mostra tua cara
               A5                     E5
Quero ver quem paga pra gente ficar assim
   B5                   C#5
Brasil, qual é o teu negócio
             A5
O nome do te sócio
          E5
Confie em mim.

B5
Grande pátria desimportante
Em nenhum instante eu vou te trair.

(solo 3)
   C#5         B5              A5                    E5  (abafar)
E |-----------------------|--------------------------------------|
B |-----------------------|-------------------------------12-12b-|
G |---------------------9-|-----9-11-11r------9-9r------9--------|
D |-13r--11r--9r---9h11---|-9h11----------9h11------9h11---------|
A |-----------------------|--------------------------------------|
E |-----------------------|--------------------------------------|

  C#5         B5                 A5          E5
|----------------15p13p12------|----------------15p13p12-14b-|
|-14-14r--12r-------------14r\-|-14-14r--12r-----------------|
|-------------13---------------|-------------13--------------|
|------------------------------|-----------------------------|
|------------------------------|-----------------------------|
|------------------------------|-----------------------------|

(refrão)
     B5             C#5
Brasil, mostra tua cara
               A5                     E5
Quero ver quem paga pra gente ficar assim
   B5                   C#5
Brasil, qual é o teu negócio
             A5
O nome do te sócio
          E5
Confie em mim.

     B5             C#5
Brasil, mostra tua cara
               A5                     E5
Quero ver quem paga pra gente ficar assim
   B5                   C#5
Brasil, qual é o teu negócio
              A5
O nome do te sócio
          E5   B5
Confie em mim,
          C#5  A5
Confie em mim,
  B5 - >  B|-12-12r\-|
Brasil.

Clipes