busca

Brasil

Cazuza

CAZUZA 

BRASIL

INTRO:
G|---------------------------|
D|-9---7-9-------------------|  4X
A|---9-----7-9---7-9---------|
E|-------------9-----7-5-5-5-|

VERSO:
G|-------------------------------------|
D|-------------------------------------|   2X EM POP
A|-2-2------4-4---------------7-7------|
E|-------------------5-5---------------|

G|-------------------------------|
D|-9---7-9-----------------------|  3X
A|---9-----7-9---7-9-------------|
E|-------------9-----7-5-5-5-5-5-|

G|-------------------------------------|
D|-------------------------------------|  2X EM POP
A|-2-2------4-4---------------7-7------|
E|-------------------5-5---------------|

REFRAO:
G|---4----4---6----6-------------9-----9-|
D|---------------------7-----7-----------|  2X EM SLAP POP
A|-2--------4------------------7---------|
E|----2-2------4-4---5---0-0-------7-7---|

G|-------------------------------|
D|-9---7-9-----------------------|  2X
A|---9-----7-9---7-9-------------|
E|-------------9-----7-5-5-5-5-5-|

VERSO:
G|-------------------------------------|
D|-------------------------------------|  4X EM POP
A|-2-2------4-4---------------7-7------|
E|-------------------5-5---------------|

REFRAO:
G|---4----4---6----6-------------9-----9-|
D|---------------------7-----7-----------|  2X EM SLAP POP
A|-2--------4------------------7---------|
E|----2-2------4-4---5---0-0-------7-7---|

G|-------------------------|
D|-5-------5-------5---5---|
A|-------------------------|
E|-----3-------3-----3---3-|

G|---4----4---6----6-------------9-----9-|
D|---------------------7-----7-----------|  2X EM SLAP POP
A|-2--------4------------------7---------|
E|----2-2------4-4---5---0-0-------7-7---|

FINAL:
G|---------------------------|
D|-9---7-9-------------------|  3X
A|---9-----7-9---7-9---------|
E|-------------9-----7-5-5-5-|


_______________________________________________________
Contribuição: ROBSON DE OLIVEIRA RODRIGUES(ROR20@HOTMAIL.COM)

Clipes